999
dxflib 2.2.0.0
  0
SECTION
  2
HEADER
  9
$ACADVER
  1
AC1015
  9
$HANDSEED
  5
FFFF
  9
$DIMASZ
 40
2.5
  9
$PLIMMIN
 10
0.0
 20
0.0
  9
$DIMEXE
 40
1.25
  9
$DIMGAP
 40
0.625
  9
$PLIMMAX
 10
210.0
 20
297.0
  9
$INSUNITS
 70
4
  9
$DIMSTYLE
  2
Standard
  9
$CLAYER
  8
0
  9
$DIMEXO
 40
0.625
  9
$DIMTXT
 40
2.5
  9
$CLAYER
  8
0
  0
ENDSEC
  0
SECTION
  2
TABLES
  0
TABLE
  2
VPORT
  5
8
100
AcDbSymbolTable
 70
1
  0
VPORT
  5
30
100
AcDbSymbolTableRecord
100
AcDbViewportTableRecord
  2
*Active
 70
0
 10
0.0
 20
0.0
 11
1.0
 21
1.0
 12
286.3055555555554861
 22
148.5
 13
0.0
 23
0.0
 14
10.0
 24
10.0
 15
10.0
 25
10.0
 16
0.0
 26
0.0
 36
1.0
 17
0.0
 27
0.0
 37
0.0
 40
297.0
 41
1.92798353909465
 42
50.0
 43
0.0
 44
0.0
 50
0.0
 51
0.0
 71
0
 72
100
 73
1
 74
3
 75
1
 76
1
 77
0
 78
0
281
0
 65
1
110
0.0
120
0.0
130
0.0
111
1.0
121
0.0
131
0.0
112
0.0
122
1.0
132
0.0
 79
0
146
0.0
  0
ENDTAB
  0
TABLE
  2
LTYPE
  5
5
100
AcDbSymbolTable
 70
21
  0
LTYPE
  5
14
100
AcDbSymbolTableRecord
100
AcDbLinetypeTableRecord
  2
ByBlock
 70
0
  3

 72
65
 73
0
 40
0.0
  0
LTYPE
  5
15
100
AcDbSymbolTableRecord
100
AcDbLinetypeTableRecord
  2
ByLayer
 70
0
  3

 72
65
 73
0
 40
0.0
  0
LTYPE
  5
16
100
AcDbSymbolTableRecord
100
AcDbLinetypeTableRecord
  2
CONTINUOUS
 70
0
  3
Solid line
 72
65
 73
0
 40
0.0
  0
LTYPE
  5
31
100
AcDbSymbolTableRecord
100
AcDbLinetypeTableRecord
  2
DOT
 70
0
  3
Dot . . . . . . . . . . . . . . . . . . . . . .
 72
65
 73
2
 40
6.3499999999999996
 49
0.0
 74
0
 49
-6.3499999999999996
 74
0
  0
LTYPE
  5
32
100
AcDbSymbolTableRecord
100
AcDbLinetypeTableRecord
  2
DOT2
 70
0
  3
Dot (.5x) .....................................
 72
65
 73
2
 40
3.1749999999999998
 49
0.0
 74
0
 49
-3.1749999999999998
 74
0
  0
LTYPE
  5
33
100
AcDbSymbolTableRecord
100
AcDbLinetypeTableRecord
  2
DOTX2
 70
0
  3
Dot (2x) .  .  .  .  .  .  .  .  .  .  .  .  .
 72
65
 73
2
 40
12.6999999999999993
 49
0.0
 74
0
 49
-12.6999999999999993
 74
0
  0
LTYPE
  5
34
100
AcDbSymbolTableRecord
100
AcDbLinetypeTableRecord
  2
DASHED
 70
0
  3
Dashed __ __ __ __ __ __ __ __ __ __ __ __ __ _
 72
65
 73
2
 40
19.0500000000000007
 49
12.6999999999999993
 74
0
 49
-6.3499999999999996
 74
0
  0
LTYPE
  5
35
100
AcDbSymbolTableRecord
100
AcDbLinetypeTableRecord
  2
DASHED2
 70
0
  3
Dashed (.5x) _ _ _ _ _ _ _ _ _ _ _ _ _ _ _ _ _
 72
65
 73
2
 40
9.5250000000000004
 49
6.3499999999999996
 74
0
 49
-3.1749999999999998
 74
0
  0
LTYPE
  5
36
100
AcDbSymbolTableRecord
100
AcDbLinetypeTableRecord
  2
DASHEDX2
 70
0
  3
Dashed (2x) ____  ____  ____  ____  ____  ___
 72
65
 73
2
 40
38.1000000000000014
 49
25.3999999999999986
 74
0
 49
-12.6999999999999993
 74
0
  0
LTYPE
  5
37
100
AcDbSymbolTableRecord
100
AcDbLinetypeTableRecord
  2
DASHDOT
 70
0
  3
Dash dot __ . __ . __ . __ . __ . __ . __ . __
 72
65
 73
4
 40
25.3999999999999986
 49
12.6999999999999993
 74
0
 49
-6.3499999999999996
 74
0
 49
0.0
 74
0
 49
-6.3499999999999996
 74
0
  0
LTYPE
  5
38
100
AcDbSymbolTableRecord
100
AcDbLinetypeTableRecord
  2
DASHDOT2
 70
0
  3
Dash dot (.5x) _._._._._._._._._._._._._._._.
 72
65
 73
4
 40
12.6999999999999993
 49
6.3499999999999996
 74
0
 49
-3.1749999999999998
 74
0
 49
0.0
 74
0
 49
-3.1749999999999998
 74
0
  0
LTYPE
  5
39
100
AcDbSymbolTableRecord
100
AcDbLinetypeTableRecord
  2
DASHDOTX2
 70
0
  3
Dash dot (2x) ____  .  ____  .  ____  .  ___
 72
65
 73
4
 40
50.7999999999999972
 49
25.3999999999999986
 74
0
 49
-12.6999999999999993
 74
0
 49
0.0
 74
0
 49
-12.6999999999999993
 74
0
  0
LTYPE
  5
3A
100
AcDbSymbolTableRecord
100
AcDbLinetypeTableRecord
  2
DIVIDE
 70
0
  3
Divide ____ . . ____ . . ____ . . ____ . . ____
 72
65
 73
6
 40
31.75
 49
12.6999999999999993
 74
0
 49
-6.3499999999999996
 74
0
 49
0.0
 74
0
 49
-6.3499999999999996
 74
0
 49
0.0
 74
0
 49
-6.3499999999999996
 74
0
  0
LTYPE
  5
3B
100
AcDbSymbolTableRecord
100
AcDbLinetypeTableRecord
  2
DIVIDE2
 70
0
  3
Divide (.5x) __..__..__..__..__..__..__..__.._
 72
65
 73
6
 40
15.875
 49
6.3499999999999996
 74
0
 49
-3.1749999999999998
 74
0
 49
0.0
 74
0
 49
-3.1749999999999998
 74
0
 49
0.0
 74
0
 49
-3.1749999999999998
 74
0
  0
LTYPE
  5
3C
100
AcDbSymbolTableRecord
100
AcDbLinetypeTableRecord
  2
DIVIDEX2
 70
0
  3
Divide (2x) ________  .  .  ________  .  .  _
 72
65
 73
6
 40
63.5
 49
25.3999999999999986
 74
0
 49
-12.6999999999999993
 74
0
 49
0.0
 74
0
 49
-12.6999999999999993
 74
0
 49
0.0
 74
0
 49
-12.6999999999999993
 74
0
  0
LTYPE
  5
3D
100
AcDbSymbolTableRecord
100
AcDbLinetypeTableRecord
  2
CENTER
 70
0
  3
Center ____ _ ____ _ ____ _ ____ _ ____ _ ____
 72
65
 73
4
 40
50.7999999999999972
 49
31.75
 74
0
 49
-6.3499999999999996
 74
0
 49
6.3499999999999996
 74
0
 49
-6.3499999999999996
 74
0
  0
LTYPE
  5
3E
100
AcDbSymbolTableRecord
100
AcDbLinetypeTableRecord
  2
CENTER2
 70
0
  3
Center (.5x) ___ _ ___ _ ___ _ ___ _ ___ _ ___
 72
65
 73
4
 40
28.5749999999999993
 49
19.0500000000000007
 74
0
 49
-3.1749999999999998
 74
0
 49
3.1749999999999998
 74
0
 49
-3.1749999999999998
 74
0
  0
LTYPE
  5
3F
100
AcDbSymbolTableRecord
100
AcDbLinetypeTableRecord
  2
CENTERX2
 70
0
  3
Center (2x) ________  __  ________  __  _____
 72
65
 73
4
 40
101.5999999999999943
 49
63.5
 74
0
 49
-12.6999999999999993
 74
0
 49
12.6999999999999993
 74
0
 49
-12.6999999999999993
 74
0
  0
LTYPE
  5
40
100
AcDbSymbolTableRecord
100
AcDbLinetypeTableRecord
  2
BORDER
 70
0
  3
Border __ __ . __ __ . __ __ . __ __ . __ __ .
 72
65
 73
6
 40
44.4500000000000028
 49
12.6999999999999993
 74
0
 49
-6.3499999999999996
 74
0
 49
12.6999999999999993
 74
0
 49
-6.3499999999999996
 74
0
 49
0.0
 74
0
 49
-6.3499999999999996
 74
0
  0
LTYPE
  5
41
100
AcDbSymbolTableRecord
100
AcDbLinetypeTableRecord
  2
BORDER2
 70
0
  3
Border (.5x) __.__.__.__.__.__.__.__.__.__.__.
 72
65
 73
6
 40
22.2250000000000014
 49
6.3499999999999996
 74
0
 49
-3.1749999999999998
 74
0
 49
6.3499999999999996
 74
0
 49
-3.1749999999999998
 74
0
 49
0.0
 74
0
 49
-3.1749999999999998
 74
0
  0
LTYPE
  5
42
100
AcDbSymbolTableRecord
100
AcDbLinetypeTableRecord
  2
BORDERX2
 70
0
  3
Border (2x) ____  ____  .  ____  ____  .  ___
 72
65
 73
6
 40
88.9000000000000057
 49
25.3999999999999986
 74
0
 49
-12.6999999999999993
 74
0
 49
25.3999999999999986
 74
0
 49
-12.6999999999999993
 74
0
 49
0.0
 74
0
 49
-12.6999999999999993
 74
0
  0
ENDTAB
  0
TABLE
  2
LAYER
  5
2
100
AcDbSymbolTable
 70
1
  0
LAYER
  5
10
100
AcDbSymbolTableRecord
100
AcDbLayerTableRecord
  2
0
 70
0
 62
7
420
0
  6
CONTINUOUS
370
25
390
F
  0
ENDTAB
  0
TABLE
  2
STYLE
  5
3
100
AcDbSymbolTable
 70
1
  0
STYLE
  5
11
100
AcDbSymbolTableRecord
100
AcDbTextStyleTableRecord
  2
Standard
 70
0
 40
0.0
 41
0.75
 50
0.0
 71
0
 42
2.5
  3
txt
  4

  0
ENDTAB
  0
TABLE
  2
VIEW
  5
6
100
AcDbSymbolTable
 70
0
  0
ENDTAB
  0
TABLE
  2
UCS
  5
7
100
AcDbSymbolTable
 70
0
  0
ENDTAB
  0
TABLE
  2
APPID
  5
9
100
AcDbSymbolTable
 70
1
  0
APPID
  5
12
100
AcDbSymbolTableRecord
100
AcDbRegAppTableRecord
  2
ACAD
 70
0
  0
ENDTAB
  0
TABLE
  2
DIMSTYLE
  5
A
100
AcDbSymbolTable
 70
1
100
AcDbDimStyleTable
 71
0
  0
DIMSTYLE
105
27
100
AcDbSymbolTableRecord
100
AcDbDimStyleTableRecord
  2
Standard
 41
2.5
 42
0.625
 43
3.75
 44
1.25
 70
0
 73
0
 74
0
 77
1
 78
8
140
2.5
141
2.5
143
0.03937007874016
147
0.625
171
3
172
1
271
2
272
2
274
3
278
44
283
0
284
8
340
11
  0
ENDTAB
  0
TABLE
  2
BLOCK_RECORD
  5
1
100
AcDbSymbolTable
 70
1
  0
BLOCK_RECORD
  5
1F
100
AcDbSymbolTableRecord
100
AcDbBlockTableRecord
  2
*Model_Space
340
22
  0
BLOCK_RECORD
  5
1B
100
AcDbSymbolTableRecord
100
AcDbBlockTableRecord
  2
*Paper_Space
340
1E
  0
BLOCK_RECORD
  5
23
100
AcDbSymbolTableRecord
100
AcDbBlockTableRecord
  2
*Paper_Space0
340
26
  0
BLOCK_RECORD
  5
43
100
AcDbSymbolTableRecord
100
AcDbBlockTableRecord
  2
M6_c-0
340
0
  0
BLOCK_RECORD
  5
44
100
AcDbSymbolTableRecord
100
AcDbBlockTableRecord
  2
M6_c-1
340
0
  0
BLOCK_RECORD
  5
45
100
AcDbSymbolTableRecord
100
AcDbBlockTableRecord
  2
bearing hole and guides
340
0
  0
BLOCK_RECORD
  5
46
100
AcDbSymbolTableRecord
100
AcDbBlockTableRecord
  2
tgrips
340
0
  0
BLOCK_RECORD
  5
47
100
AcDbSymbolTableRecord
100
AcDbBlockTableRecord
  2
slot
340
0
  0
BLOCK_RECORD
  5
48
100
AcDbSymbolTableRecord
100
AcDbBlockTableRecord
  2
bearingcover
340
0
  0
BLOCK_RECORD
  5
49
100
AcDbSymbolTableRecord
100
AcDbBlockTableRecord
  2
yaxiscover
340
0
  0
BLOCK_RECORD
  5
4A
100
AcDbSymbolTableRecord
100
AcDbBlockTableRecord
  2
Z stage clamps
340
0
  0
BLOCK_RECORD
  5
4B
100
AcDbSymbolTableRecord
100
AcDbBlockTableRecord
  2
steppernema17
340
0
  0
ENDTAB
  0
ENDSEC
  0
SECTION
  2
BLOCKS
  0
BLOCK
  5
20
100
AcDbEntity
  8
0
100
AcDbBlockBegin
  2
*Model_Space
 70
0
 10
0.0
 20
0.0
 30
0.0
  3
*Model_Space
  1

  0
ENDBLK
  5
21
100
AcDbEntity
  8
0
100
AcDbBlockEnd
  0
BLOCK
  5
1C
100
AcDbEntity
 67
1
  8
0
100
AcDbBlockBegin
  2
*Paper_Space
 70
0
 10
0.0
 20
0.0
 30
0.0
  3
*Paper_Space
  1

  0
ENDBLK
  5
1D
100
AcDbEntity
 67
1
  8
0
100
AcDbBlockEnd
  0
BLOCK
  5
24
100
AcDbEntity
  8
0
100
AcDbBlockBegin
  2
*Paper_Space0
 70
0
 10
0.0
 20
0.0
 30
0.0
  3
*Paper_Space0
  1

  0
ENDBLK
  5
25
100
AcDbEntity
  8
0
100
AcDbBlockEnd
  0
BLOCK
  5
4C
100
AcDbEntity
  8
0
100
AcDbBlockBegin
  2
M6_c-0
 70
0
 10
0.0
 20
0.0
 30
0.0
  3
M6_c-0
  1

  0
ENDBLK
  5
4D
100
AcDbEntity
  8
0
100
AcDbBlockEnd
  0
BLOCK
  5
4E
100
AcDbEntity
  8
0
100
AcDbBlockBegin
  2
M6_c-1
 70
0
 10
0.0
 20
0.0
 30
0.0
  3
M6_c-1
  1

  0
ENDBLK
  5
4F
100
AcDbEntity
  8
0
100
AcDbBlockEnd
  0
BLOCK
  5
50
100
AcDbEntity
  8
0
100
AcDbBlockBegin
  2
bearing hole and guides
 70
0
 10
0.0
 20
0.0
 30
0.0
  3
bearing hole and guides
  1

  0
CIRCLE
  5
51
100
AcDbEntity
100
AcDbCircle
  8
0
 62
256
370
-1
  6
ByLayer
 10
0.0
 20
0.0
 30
0.0
 40
10.9499999999999993
  0
CIRCLE
  5
52
100
AcDbEntity
100
AcDbCircle
  8
0
 62
256
370
-1
  6
ByLayer
 10
10.0
 20
10.0
 30
0.0
 40
1.5
  0
CIRCLE
  5
53
100
AcDbEntity
100
AcDbCircle
  8
0
 62
256
370
-1
  6
ByLayer
 10
10.0
 20
-10.0
 30
0.0
 40
1.5
  0
CIRCLE
  5
54
100
AcDbEntity
100
AcDbCircle
  8
0
 62
256
370
-1
  6
ByLayer
 10
-10.0
 20
-10.0
 30
0.0
 40
1.5
  0
CIRCLE
  5
55
100
AcDbEntity
100
AcDbCircle
  8
0
 62
256
370
-1
  6
ByLayer
 10
-10.0
 20
10.0
 30
0.0
 40
1.5
  0
ENDBLK
  5
56
100
AcDbEntity
  8
0
100
AcDbBlockEnd
  0
BLOCK
  5
57
100
AcDbEntity
  8
0
100
AcDbBlockBegin
  2
tgrips
 70
0
 10
0.0
 20
0.0
 30
0.0
  3
tgrips
  1

  0
LINE
  5
58
100
AcDbEntity
100
AcDbLine
  8
0
 62
256
370
-1
  6
ByLayer
 10
0.0
 20
0.0
 30
0.0
 11
10.0
 21
0.0
 31
0.0
  0
LINE
  5
59
100
AcDbEntity
100
AcDbLine
  8
0
 62
256
370
-1
  6
ByLayer
 10
60.0
 20
0.0
 30
0.0
 11
70.0
 21
0.0
 31
0.0
  0
LINE
  5
5A
100
AcDbEntity
100
AcDbLine
  8
0
 62
256
370
-1
  6
ByLayer
 10
70.0
 20
0.0
 30
0.0
 11
70.0
 21
0.0
 31
0.0
  0
LINE
  5
5B
100
AcDbEntity
100
AcDbLine
  8
0
 62
256
370
-1
  6
ByLayer
 10
40.5
 20
-10.0
 30
0.0
 11
40.5
 21
-10.0
 31
0.0
  0
LINE
  5
5C
100
AcDbEntity
100
AcDbLine
  8
0
 62
256
370
-1
  6
ByLayer
 10
37.75
 20
-7.0
 30
0.0
 11
37.7474839689560469
 21
-10.0
 31
0.0
  0
LINE
  5
5D
100
AcDbEntity
100
AcDbLine
  8
0
 62
256
370
-1
  6
ByLayer
 10
36.5
 20
-10.0
 30
0.0
 11
37.7474839689560469
 21
-10.0
 31
0.0
  0
LINE
  5
5E
100
AcDbEntity
100
AcDbLine
  8
0
 62
256
370
-1
  6
ByLayer
 10
32.25
 20
-7.0
 30
0.0
 11
32.2453083395828202
 21
-10.0
 31
0.0
  0
LINE
  5
5F
100
AcDbEntity
100
AcDbLine
  8
0
 62
256
370
-1
  6
ByLayer
 10
32.2453083395828202
 20
-10.0
 30
0.0
 11
33.5
 21
-10.0
 31
0.0
  0
LINE
  5
60
100
AcDbEntity
100
AcDbLine
  8
0
 62
256
370
-1
  6
ByLayer
 10
33.5827980153515355
 20
0.0
 30
0.0
 11
33.5835159800337451
 21
-6.9987197232206464
 31
0.0
  0
LINE
  5
61
100
AcDbEntity
100
AcDbLine
  8
0
 62
256
370
-1
  6
ByLayer
 10
36.4008093934434527
 20
-6.9987197232206464
 30
0.0
 11
36.4008093934435664
 21
0.0044872792644778
 31
0.0
  0
LINE
  5
62
100
AcDbEntity
100
AcDbLine
  8
0
 62
256
370
-1
  6
ByLayer
 10
36.4008093934435664
 20
0.0044872792644778
 30
0.0
 11
50.0
 21
0.0
 31
0.0
  0
LINE
  5
63
100
AcDbEntity
100
AcDbLine
  8
0
 62
256
370
-1
  6
ByLayer
 10
20.0
 20
0.0
 30
0.0
 11
33.5827980153515355
 21
0.0
 31
0.0
  0
LINE
  5
64
100
AcDbEntity
100
AcDbLine
  8
0
 62
256
370
-1
  6
ByLayer
 10
37.75
 20
-7.0
 30
0.0
 11
36.4008093934434527
 21
-6.9987197232206464
 31
0.0
  0
LINE
  5
65
100
AcDbEntity
100
AcDbLine
  8
0
 62
256
370
-1
  6
ByLayer
 10
33.5835159800337451
 20
-6.9987197232206464
 30
0.0
 11
32.25
 21
-7.0
 31
0.0
  0
LINE
  5
66
100
AcDbEntity
100
AcDbLine
  8
0
 62
256
370
-1
  6
ByLayer
 10
33.5
 20
-11.0
 30
0.0
 11
36.5
 21
-11.0
 31
0.0
  0
LINE
  5
67
100
AcDbEntity
100
AcDbLine
  8
0
 62
256
370
-1
  6
ByLayer
 10
33.5
 20
-10.0
 30
0.0
 11
33.5
 21
-11.0
 31
0.0
  0
LINE
  5
68
100
AcDbEntity
100
AcDbLine
  8
0
 62
256
370
-1
  6
ByLayer
 10
36.5
 20
-11.0
 30
0.0
 11
36.5
 21
-10.0
 31
0.0
  0
LINE
  5
69
100
AcDbEntity
100
AcDbLine
  8
0
 62
256
370
-1
  6
ByLayer
 10
20.0
 20
5.0
 30
0.0
 11
20.0
 21
0.0
 31
0.0
  0
LINE
  5
6A
100
AcDbEntity
100
AcDbLine
  8
0
 62
256
370
-1
  6
ByLayer
 10
10.0
 20
5.0
 30
0.0
 11
20.0
 21
5.0
 31
0.0
  0
LINE
  5
6B
100
AcDbEntity
100
AcDbLine
  8
0
 62
256
370
-1
  6
ByLayer
 10
10.0
 20
0.0
 30
0.0
 11
10.0
 21
5.0
 31
0.0
  0
LINE
  5
6C
100
AcDbEntity
100
AcDbLine
  8
0
 62
256
370
-1
  6
ByLayer
 10
50.0
 20
5.0
 30
0.0
 11
60.0
 21
5.0
 31
0.0
  0
LINE
  5
6D
100
AcDbEntity
100
AcDbLine
  8
0
 62
256
370
-1
  6
ByLayer
 10
60.0
 20
5.0
 30
0.0
 11
60.0
 21
0.0
 31
0.0
  0
LINE
  5
6E
100
AcDbEntity
100
AcDbLine
  8
0
 62
256
370
-1
  6
ByLayer
 10
50.0
 20
0.0
 30
0.0
 11
50.0
 21
5.0
 31
0.0
  0
ENDBLK
  5
6F
100
AcDbEntity
  8
0
100
AcDbBlockEnd
  0
BLOCK
  5
70
100
AcDbEntity
  8
0
100
AcDbBlockBegin
  2
slot
 70
0
 10
0.0
 20
0.0
 30
0.0
  3
slot
  1

  0
LINE
  5
71
100
AcDbEntity
100
AcDbLine
  8
0
 62
256
370
-1
  6
ByLayer
 10
5.0
 20
0.0
 30
0.0
 11
15.0
 21
0.0
 31
0.0
  0
LINE
  5
72
100
AcDbEntity
100
AcDbLine
  8
0
 62
256
370
-1
  6
ByLayer
 10
45.0
 20
-0.0000000000000019
 30
0.0
 11
55.0
 21
-0.0000000000000058
 31
0.0
  0
LINE
  5
73
100
AcDbEntity
100
AcDbLine
  8
0
 62
256
370
-1
  6
ByLayer
 10
45.0
 20
5.0
 30
0.0
 11
45.0
 21
0.0
 31
0.0
  0
LINE
  5
74
100
AcDbEntity
100
AcDbLine
  8
0
 62
256
370
-1
  6
ByLayer
 10
45.0
 20
5.0
 30
0.0
 11
55.0
 21
5.0
 31
0.0
  0
LINE
  5
75
100
AcDbEntity
100
AcDbLine
  8
0
 62
256
370
-1
  6
ByLayer
 10
55.0
 20
0.0
 30
0.0
 11
55.0
 21
5.0
 31
0.0
  0
LINE
  5
76
100
AcDbEntity
100
AcDbLine
  8
0
 62
256
370
-1
  6
ByLayer
 10
15.0
 20
0.0
 30
0.0
 11
15.0
 21
5.0
 31
0.0
  0
LINE
  5
77
100
AcDbEntity
100
AcDbLine
  8
0
 62
256
370
-1
  6
ByLayer
 10
5.0
 20
5.0
 30
0.0
 11
15.0
 21
5.0
 31
0.0
  0
LINE
  5
78
100
AcDbEntity
100
AcDbLine
  8
0
 62
256
370
-1
  6
ByLayer
 10
5.0
 20
5.0
 30
0.0
 11
5.0
 21
0.0
 31
0.0
  0
CIRCLE
  5
79
100
AcDbEntity
100
AcDbCircle
  8
0
 62
256
370
-1
  6
ByLayer
 10
30.0
 20
2.5
 30
0.0
 40
1.5
  0
ENDBLK
  5
7A
100
AcDbEntity
  8
0
100
AcDbBlockEnd
  0
BLOCK
  5
7B
100
AcDbEntity
  8
0
100
AcDbBlockBegin
  2
bearingcover
 70
0
 10
0.0
 20
0.0
 30
0.0
  3
bearingcover
  1

  0
CIRCLE
  5
7C
100
AcDbEntity
100
AcDbCircle
  8
0
 62
256
370
-1
  6
ByLayer
 10
0.0000000000000071
 20
0.0
 30
0.0
 40
8.0622577482985491
  0
ARC
  5
7D
100
AcDbEntity
  8
0
 62
256
370
-1
  6
ByLayer
100
AcDbCircle
 10
-10.0000000000000018
 20
10.0
 30
0.0
 40
10.0
100
AcDbArc
 50
90.0
 51
180.0
  0
ARC
  5
7E
100
AcDbEntity
  8
0
 62
256
370
-1
  6
ByLayer
100
AcDbCircle
 10
10.0
 20
10.0
 30
0.0
 40
10.0
100
AcDbArc
 50
0.0
 51
90.0000000000000142
  0
ARC
  5
7F
100
AcDbEntity
  8
0
 62
256
370
-1
  6
ByLayer
100
AcDbCircle
 10
-10.0
 20
-10.0
 30
0.0
 40
10.0
100
AcDbArc
 50
180.0
 51
270.0
  0
ARC
  5
80
100
AcDbEntity
  8
0
 62
256
370
-1
  6
ByLayer
100
AcDbCircle
 10
10.0
 20
-10.0
 30
0.0
 40
10.0
100
AcDbArc
 50
270.0
 51
0.0
  0
CIRCLE
  5
81
100
AcDbEntity
100
AcDbCircle
  8
0
 62
256
370
-1
  6
ByLayer
 10
-10.0000000000000018
 20
10.0
 30
0.0
 40
1.5
  0
CIRCLE
  5
82
100
AcDbEntity
100
AcDbCircle
  8
0
 62
256
370
-1
  6
ByLayer
 10
10.0
 20
10.0
 30
0.0
 40
1.5
  0
CIRCLE
  5
83
100
AcDbEntity
100
AcDbCircle
  8
0
 62
256
370
-1
  6
ByLayer
 10
10.0
 20
-10.0
 30
0.0
 40
1.5
  0
CIRCLE
  5
84
100
AcDbEntity
100
AcDbCircle
  8
0
 62
256
370
-1
  6
ByLayer
 10
-10.0
 20
-10.0
 30
0.0
 40
1.5
  0
ENDBLK
  5
85
100
AcDbEntity
  8
0
100
AcDbBlockEnd
  0
BLOCK
  5
86
100
AcDbEntity
  8
0
100
AcDbBlockBegin
  2
yaxiscover
 70
0
 10
0.0
 20
0.0
 30
0.0
  3
yaxiscover
  1

  0
CIRCLE
  5
87
100
AcDbEntity
100
AcDbCircle
  8
0
 62
256
370
-1
  6
ByLayer
 10
-10.0
 20
10.0
 30
0.0
 40
1.5
  0
CIRCLE
  5
88
100
AcDbEntity
100
AcDbCircle
  8
0
 62
256
370
-1
  6
ByLayer
 10
10.0
 20
10.0
 30
0.0
 40
1.5
  0
CIRCLE
  5
89
100
AcDbEntity
100
AcDbCircle
  8
0
 62
256
370
-1
  6
ByLayer
 10
10.0
 20
-10.0
 30
0.0
 40
1.5
  0
CIRCLE
  5
8A
100
AcDbEntity
100
AcDbCircle
  8
0
 62
256
370
-1
  6
ByLayer
 10
-10.0
 20
-10.0
 30
0.0
 40
1.5
  0
ARC
  5
8B
100
AcDbEntity
  8
0
 62
256
370
-1
  6
ByLayer
100
AcDbCircle
 10
-10.0000000000000018
 20
10.0
 30
0.0
 40
10.0
100
AcDbArc
 50
90.0
 51
180.0
  0
ARC
  5
8C
100
AcDbEntity
  8
0
 62
256
370
-1
  6
ByLayer
100
AcDbCircle
 10
10.0
 20
10.0
 30
0.0
 40
10.0
100
AcDbArc
 50
0.0
 51
90.0000000000000142
  0
ARC
  5
8D
100
AcDbEntity
  8
0
 62
256
370
-1
  6
ByLayer
100
AcDbCircle
 10
10.0
 20
-10.0
 30
0.0
 40
10.0
100
AcDbArc
 50
270.0
 51
0.0
  0
ARC
  5
8E
100
AcDbEntity
  8
0
 62
256
370
-1
  6
ByLayer
100
AcDbCircle
 10
-10.0
 20
-10.0
 30
0.0
 40
10.0
100
AcDbArc
 50
180.0
 51
270.0
  0
LINE
  5
8F
100
AcDbEntity
100
AcDbLine
  8
0
 62
4
420
65535
370
-1
  6
ByLayer
 10
-9.4583333333333321
 20
13.5000000000000142
 30
0.0
 11
-9.4583333333333321
 21
15.5000000000000142
 31
0.0
  0
LINE
  5
90
100
AcDbEntity
100
AcDbLine
  8
0
 62
4
420
65535
370
-1
  6
ByLayer
 10
-9.4583333333333321
 20
15.5000000000000142
 30
0.0
 11
-8.7916666666666661
 21
15.5000000000000142
 31
0.0
  0
ARC
  5
91
100
AcDbEntity
  8
0
 62
4
420
65535
370
-1
  6
ByLayer
100
AcDbCircle
 10
-8.7916666666666661
 20
15.1666666666666803
 30
0.0
 40
0.3333333333333333
100
AcDbArc
 50
0.0
 51
90.0
  0
LINE
  5
92
100
AcDbEntity
100
AcDbLine
  8
0
 62
4
420
65535
370
-1
  6
ByLayer
 10
-7.4583333333333321
 20
14.8333333333333481
 30
0.0
 11
-7.4583333333333321
 21
14.1666666666666803
 31
0.0
  0
ARC
  5
93
100
AcDbEntity
  8
0
 62
4
420
65535
370
-1
  6
ByLayer
100
AcDbCircle
 10
-6.7916666666666652
 20
14.1666666666666803
 30
0.0
 40
0.6666666666666666
100
AcDbArc
 50
180.0
 51
0.0
  0
LINE
  5
94
100
AcDbEntity
100
AcDbLine
  8
0
 62
4
420
65535
370
-1
  6
ByLayer
 10
-6.1249999999999991
 20
14.1666666666666803
 30
0.0
 11
-6.1249999999999991
 21
14.8333333333333481
 31
0.0
  0
ARC
  5
95
100
AcDbEntity
  8
0
 62
4
420
65535
370
-1
  6
ByLayer
100
AcDbCircle
 10
-6.7916666666666652
 20
14.8333333333333481
 30
0.0
 40
0.6666666666666666
100
AcDbArc
 50
0.0
 51
180.0
  0
LINE
  5
96
100
AcDbEntity
100
AcDbLine
  8
0
 62
4
420
65535
370
-1
  6
ByLayer
 10
-3.791666666666667
 20
16.5000000000000142
 30
0.0
 11
-3.791666666666667
 21
13.5000000000000124
 31
0.0
  0
LINE
  5
97
100
AcDbEntity
100
AcDbLine
  8
0
 62
4
420
65535
370
-1
  6
ByLayer
 10
-3.791666666666667
 20
13.5000000000000124
 30
0.0
 11
-4.625
 21
13.5000000000000124
 31
0.0
  0
ARC
  5
98
100
AcDbEntity
  8
0
 62
4
420
65535
370
-1
  6
ByLayer
100
AcDbCircle
 10
-4.625
 20
14.0000000000000124
 30
0.0
 40
0.5
100
AcDbArc
 50
180.0
 51
270.0
  0
LINE
  5
99
100
AcDbEntity
100
AcDbLine
  8
0
 62
4
420
65535
370
-1
  6
ByLayer
 10
-5.125
 20
14.0000000000000124
 30
0.0
 11
-5.125
 21
15.0000000000000124
 31
0.0
  0
ARC
  5
9A
100
AcDbEntity
  8
0
 62
4
420
65535
370
-1
  6
ByLayer
100
AcDbCircle
 10
-4.625
 20
15.0000000000000124
 30
0.0
 40
0.5
100
AcDbArc
 50
90.0
 51
180.0
  0
LINE
  5
9B
100
AcDbEntity
100
AcDbLine
  8
0
 62
4
420
65535
370
-1
  6
ByLayer
 10
-4.625
 20
15.5000000000000124
 30
0.0
 11
-3.7916666666666665
 21
15.5000000000000124
 31
0.0
  0
LINE
  5
9C
100
AcDbEntity
100
AcDbLine
  8
0
 62
4
420
65535
370
-1
  6
ByLayer
 10
0.4583333333333337
 20
15.5000000000000107
 30
0.0
 11
-0.0416666666666662
 21
15.5000000000000107
 31
0.0
  0
ARC
  5
9D
100
AcDbEntity
  8
0
 62
4
420
65535
370
-1
  6
ByLayer
100
AcDbCircle
 10
-0.0416666666666657
 20
15.0000000000000107
 30
0.0
 40
0.5
100
AcDbArc
 50
90.0
 51
180.0
  0
LINE
  5
9E
100
AcDbEntity
100
AcDbLine
  8
0
 62
4
420
65535
370
-1
  6
ByLayer
 10
-0.541666666666666
 20
15.0000000000000107
 30
0.0
 11
-0.5416666666666661
 21
14.0000000000000107
 31
0.0
  0
ARC
  5
9F
100
AcDbEntity
  8
0
 62
4
420
65535
370
-1
  6
ByLayer
100
AcDbCircle
 10
-0.0416666666666661
 20
14.0000000000000107
 30
0.0
 40
0.5
100
AcDbArc
 50
180.0
 51
270.0
  0
LINE
  5
A0
100
AcDbEntity
100
AcDbLine
  8
0
 62
4
420
65535
370
-1
  6
ByLayer
 10
-0.0416666666666661
 20
13.5000000000000107
 30
0.0
 11
0.4583333333333339
 21
13.5000000000000107
 31
0.0
  0
LINE
  5
A1
100
AcDbEntity
100
AcDbLine
  8
0
 62
4
420
65535
370
-1
  6
ByLayer
 10
1.4583333333333339
 20
14.8333333333333481
 30
0.0
 11
1.4583333333333339
 21
14.1666666666666821
 31
0.0
  0
ARC
  5
A2
100
AcDbEntity
  8
0
 62
4
420
65535
370
-1
  6
ByLayer
100
AcDbCircle
 10
2.1250000000000004
 20
14.1666666666666821
 30
0.0
 40
0.6666666666666666
100
AcDbArc
 50
180.0
 51
0.0
  0
LINE
  5
A3
100
AcDbEntity
100
AcDbLine
  8
0
 62
4
420
65535
370
-1
  6
ByLayer
 10
2.791666666666667
 20
14.1666666666666821
 30
0.0
 11
2.791666666666667
 21
14.8333333333333481
 31
0.0
  0
ARC
  5
A4
100
AcDbEntity
  8
0
 62
4
420
65535
370
-1
  6
ByLayer
100
AcDbCircle
 10
2.1250000000000004
 20
14.8333333333333481
 30
0.0
 40
0.6666666666666666
100
AcDbArc
 50
0.0
 51
180.0
  0
LINE
  5
A5
100
AcDbEntity
100
AcDbLine
  8
0
 62
4
420
65535
370
-1
  6
ByLayer
 10
3.7916666666666661
 20
15.5000000000000036
 30
0.0
 11
4.458333333333333
 21
13.5000000000000036
 31
0.0
  0
LINE
  5
A6
100
AcDbEntity
100
AcDbLine
  8
0
 62
4
420
65535
370
-1
  6
ByLayer
 10
4.458333333333333
 20
13.5000000000000036
 30
0.0
 11
5.125
 21
15.5000000000000036
 31
0.0
  0
LINE
  5
A7
100
AcDbEntity
100
AcDbLine
  8
0
 62
4
420
65535
370
-1
  6
ByLayer
 10
6.125
 20
14.5000000000000231
 30
0.0
 11
7.458333333333333
 21
14.5000000000000231
 31
0.0
  0
LINE
  5
A8
100
AcDbEntity
100
AcDbLine
  8
0
 62
4
420
65535
370
-1
  6
ByLayer
 10
7.458333333333333
 20
14.5000000000000231
 30
0.0
 11
7.458333333333333
 21
14.8333333333333552
 31
0.0
  0
ARC
  5
A9
100
AcDbEntity
  8
0
 62
4
420
65535
370
-1
  6
ByLayer
100
AcDbCircle
 10
6.791666666666667
 20
14.8333333333333552
 30
0.0
 40
0.6666666666666666
100
AcDbArc
 50
0.0
 51
180.0
  0
LINE
  5
AA
100
AcDbEntity
100
AcDbLine
  8
0
 62
4
420
65535
370
-1
  6
ByLayer
 10
6.125
 20
14.8333333333333552
 30
0.0
 11
6.125
 21
14.0000000000000231
 31
0.0
  0
ARC
  5
AB
100
AcDbEntity
  8
0
 62
4
420
65535
370
-1
  6
ByLayer
100
AcDbCircle
 10
6.625
 20
14.0000000000000231
 30
0.0
 40
0.5
100
AcDbArc
 50
180.0
 51
270.0
  0
LINE
  5
AC
100
AcDbEntity
100
AcDbLine
  8
0
 62
4
420
65535
370
-1
  6
ByLayer
 10
6.625
 20
13.5000000000000231
 30
0.0
 11
7.458333333333333
 21
13.5000000000000231
 31
0.0
  0
LINE
  5
AD
100
AcDbEntity
100
AcDbLine
  8
0
 62
4
420
65535
370
-1
  6
ByLayer
 10
8.4583333333333321
 20
13.5000000000000071
 30
0.0
 11
8.4583333333333321
 21
15.5000000000000071
 31
0.0
  0
LINE
  5
AE
100
AcDbEntity
100
AcDbLine
  8
0
 62
4
420
65535
370
-1
  6
ByLayer
 10
8.4583333333333321
 20
15.5000000000000071
 30
0.0
 11
9.1249999999999982
 21
15.5000000000000071
 31
0.0
  0
ARC
  5
AF
100
AcDbEntity
  8
0
 62
4
420
65535
370
-1
  6
ByLayer
100
AcDbCircle
 10
9.1249999999999982
 20
15.1666666666666732
 30
0.0
 40
0.3333333333333333
100
AcDbArc
 50
0.0
 51
90.0
  0
ENDBLK
  5
B0
100
AcDbEntity
  8
0
100
AcDbBlockEnd
  0
BLOCK
  5
B1
100
AcDbEntity
  8
0
100
AcDbBlockBegin
  2
Z stage clamps
 70
0
 10
0.0
 20
0.0
 30
0.0
  3
Z stage clamps
  1

  0
CIRCLE
  5
B2
100
AcDbEntity
100
AcDbCircle
  8
0
 62
256
370
-1
  6
ByLayer
 10
-10.0
 20
10.0000000000000018
 30
0.0
 40
1.5
  0
CIRCLE
  5
B3
100
AcDbEntity
100
AcDbCircle
  8
0
 62
256
370
-1
  6
ByLayer
 10
10.0
 20
10.0000000000000018
 30
0.0
 40
1.5
  0
CIRCLE
  5
B4
100
AcDbEntity
100
AcDbCircle
  8
0
 62
256
370
-1
  6
ByLayer
 10
10.0
 20
-10.0000000000000018
 30
0.0
 40
1.5
  0
CIRCLE
  5
B5
100
AcDbEntity
100
AcDbCircle
  8
0
 62
256
370
-1
  6
ByLayer
 10
-10.0000000000000018
 20
-10.0
 30
0.0
 40
1.5
  0
ARC
  5
B6
100
AcDbEntity
  8
0
 62
256
370
-1
  6
ByLayer
100
AcDbCircle
 10
-10.0
 20
10.0
 30
0.0
 40
5.0
100
AcDbArc
 50
90.0
 51
180.0
  0
ARC
  5
B7
100
AcDbEntity
  8
0
 62
256
370
-1
  6
ByLayer
100
AcDbCircle
 10
9.9999999999999982
 20
10.0
 30
0.0
 40
5.0
100
AcDbArc
 50
0.0
 51
89.9999999999999716
  0
ARC
  5
B8
100
AcDbEntity
  8
0
 62
256
370
-1
  6
ByLayer
100
AcDbCircle
 10
10.0
 20
-9.9999999999999982
 30
0.0
 40
5.0
100
AcDbArc
 50
270.0
 51
360.0
  0
ARC
  5
B9
100
AcDbEntity
  8
0
 62
256
370
-1
  6
ByLayer
100
AcDbCircle
 10
-9.9999999999999982
 20
-10.0
 30
0.0
 40
5.0
100
AcDbArc
 50
180.0
 51
270.0
  0
LINE
  5
BA
100
AcDbEntity
100
AcDbLine
  8
0
 62
256
370
-1
  6
ByLayer
 10
-5.0
 20
-15.0
 30
0.0
 11
-5.0
 21
0.0
 31
0.0
  0
LINE
  5
BB
100
AcDbEntity
100
AcDbLine
  8
0
 62
256
370
-1
  6
ByLayer
 10
-5.0
 20
0.0
 30
0.0
 11
-5.0
 21
0.0
 31
0.0
  0
LINE
  5
BC
100
AcDbEntity
100
AcDbLine
  8
0
 62
256
370
-1
  6
ByLayer
 10
5.0
 20
0.0
 30
0.0
 11
5.0
 21
-15.0
 31
0.0
  0
ARC
  5
BD
100
AcDbEntity
  8
0
 62
256
370
-1
  6
ByLayer
100
AcDbCircle
 10
0.0000000000000071
 20
0.0
 30
0.0
 40
5.0
100
AcDbArc
 50
0.0
 51
180.0
  0
LINE
  5
BE
100
AcDbEntity
100
AcDbLine
  8
0
 62
4
420
65535
370
-1
  6
ByLayer
 10
-7.0000000000000009
 20
9.0000000000000018
 30
0.0
 11
-5.6666666666666679
 21
9.0000000000000018
 31
0.0
  0
LINE
  5
BF
100
AcDbEntity
100
AcDbLine
  8
0
 62
4
420
65535
370
-1
  6
ByLayer
 10
-5.6666666666666679
 20
9.0000000000000018
 30
0.0
 11
-7.0000000000000009
 21
7.0000000000000018
 31
0.0
  0
LINE
  5
C0
100
AcDbEntity
100
AcDbLine
  8
0
 62
4
420
65535
370
-1
  6
ByLayer
 10
-7.0000000000000009
 20
7.0000000000000018
 30
0.0
 11
-5.6666666666666679
 21
7.0000000000000018
 31
0.0
  0
LINE
  5
C1
100
AcDbEntity
100
AcDbLine
  8
0
 62
4
420
65535
370
-1
  6
ByLayer
 10
-4.6666666666666679
 20
8.3333333333333321
 30
0.0
 11
-3.3333333333333348
 21
8.3333333333333321
 31
0.0
  0
LINE
  5
C2
100
AcDbEntity
100
AcDbLine
  8
0
 62
4
420
65535
370
-1
  6
ByLayer
 10
-2.3333333333333348
 20
6.0000000000000018
 30
0.0
 11
-1.5000000000000022
 21
6.0000000000000018
 31
0.0
  0
ARC
  5
C3
100
AcDbEntity
  8
0
 62
4
420
65535
370
-1
  6
ByLayer
100
AcDbCircle
 10
-1.5000000000000018
 20
6.5000000000000018
 30
0.0
 40
0.5
100
AcDbArc
 50
270.0
 51
0.0
  0
LINE
  5
C4
100
AcDbEntity
100
AcDbLine
  8
0
 62
4
420
65535
370
-1
  6
ByLayer
 10
-1.000000000000002
 20
6.5000000000000018
 30
0.0
 11
-1.000000000000002
 21
9.0000000000000018
 31
0.0
  0
LINE
  5
C5
100
AcDbEntity
100
AcDbLine
  8
0
 62
4
420
65535
370
-1
  6
ByLayer
 10
-1.000000000000002
 20
9.0000000000000018
 30
0.0
 11
-1.8333333333333353
 21
9.0000000000000018
 31
0.0
  0
ARC
  5
C6
100
AcDbEntity
  8
0
 62
4
420
65535
370
-1
  6
ByLayer
100
AcDbCircle
 10
-1.8333333333333346
 20
8.5000000000000018
 30
0.0
 40
0.5
100
AcDbArc
 50
90.0
 51
180.0
  0
LINE
  5
C7
100
AcDbEntity
100
AcDbLine
  8
0
 62
4
420
65535
370
-1
  6
ByLayer
 10
-2.3333333333333348
 20
8.5000000000000018
 30
0.0
 11
-2.3333333333333348
 21
7.5000000000000018
 31
0.0
  0
ARC
  5
C8
100
AcDbEntity
  8
0
 62
4
420
65535
370
-1
  6
ByLayer
100
AcDbCircle
 10
-1.833333333333335
 20
7.5000000000000018
 30
0.0
 40
0.5
100
AcDbArc
 50
180.0
 51
270.0
  0
LINE
  5
C9
100
AcDbEntity
100
AcDbLine
  8
0
 62
4
420
65535
370
-1
  6
ByLayer
 10
-1.833333333333335
 20
7.0000000000000018
 30
0.0
 11
-1.0000000000000018
 21
7.0000000000000018
 31
0.0
  0
LINE
  5
CA
100
AcDbEntity
100
AcDbLine
  8
0
 62
4
420
65535
370
-1
  6
ByLayer
 10
0.0
 20
9.0
 30
0.0
 11
-0.0000000000000001
 21
7.5
 31
0.0
  0
ARC
  5
CB
100
AcDbEntity
  8
0
 62
4
420
65535
370
-1
  6
ByLayer
100
AcDbCircle
 10
0.4999999999999999
 20
7.5
 30
0.0
 40
0.5
100
AcDbArc
 50
180.0
 51
270.0
  0
LINE
  5
CC
100
AcDbEntity
100
AcDbLine
  8
0
 62
4
420
65535
370
-1
  6
ByLayer
 10
0.4999999999999999
 20
7.0
 30
0.0
 11
1.333333333333333
 21
7.0
 31
0.0
  0
LINE
  5
CD
100
AcDbEntity
100
AcDbLine
  8
0
 62
4
420
65535
370
-1
  6
ByLayer
 10
1.333333333333333
 20
7.0
 30
0.0
 11
1.3333333333333328
 21
9.0
 31
0.0
  0
LINE
  5
CE
100
AcDbEntity
100
AcDbLine
  8
0
 62
4
420
65535
370
-1
  6
ByLayer
 10
2.3333333333333321
 20
7.0000000000000071
 30
0.0
 11
2.3333333333333321
 21
9.0000000000000071
 31
0.0
  0
LINE
  5
CF
100
AcDbEntity
100
AcDbLine
  8
0
 62
4
420
65535
370
-1
  6
ByLayer
 10
2.3333333333333321
 20
9.833333333333341
 30
0.0
 11
2.3333333333333321
 21
10.0000000000000071
 31
0.0
  0
LINE
  5
D0
100
AcDbEntity
100
AcDbLine
  8
0
 62
4
420
65535
370
-1
  6
ByLayer
 10
4.666666666666667
 20
10.0000000000000053
 30
0.0
 11
4.666666666666667
 21
7.0000000000000053
 31
0.0
  0
LINE
  5
D1
100
AcDbEntity
100
AcDbLine
  8
0
 62
4
420
65535
370
-1
  6
ByLayer
 10
4.666666666666667
 20
7.0000000000000053
 30
0.0
 11
3.8333333333333339
 21
7.0000000000000053
 31
0.0
  0
ARC
  5
D2
100
AcDbEntity
  8
0
 62
4
420
65535
370
-1
  6
ByLayer
100
AcDbCircle
 10
3.8333333333333339
 20
7.5000000000000053
 30
0.0
 40
0.5
100
AcDbArc
 50
180.0
 51
270.0
  0
LINE
  5
D3
100
AcDbEntity
100
AcDbLine
  8
0
 62
4
420
65535
370
-1
  6
ByLayer
 10
3.3333333333333339
 20
7.5000000000000053
 30
0.0
 11
3.3333333333333339
 21
8.5000000000000053
 31
0.0
  0
ARC
  5
D4
100
AcDbEntity
  8
0
 62
4
420
65535
370
-1
  6
ByLayer
100
AcDbCircle
 10
3.8333333333333344
 20
8.5000000000000053
 30
0.0
 40
0.5
100
AcDbArc
 50
90.0
 51
180.0
  0
LINE
  5
D5
100
AcDbEntity
100
AcDbLine
  8
0
 62
4
420
65535
370
-1
  6
ByLayer
 10
3.8333333333333339
 20
9.0000000000000053
 30
0.0
 11
4.6666666666666679
 21
9.0000000000000053
 31
0.0
  0
LINE
  5
D6
100
AcDbEntity
100
AcDbLine
  8
0
 62
4
420
65535
370
-1
  6
ByLayer
 10
5.6666666666666643
 20
7.9999999999999947
 30
0.0
 11
6.9999999999999973
 21
7.9999999999999947
 31
0.0
  0
LINE
  5
D7
100
AcDbEntity
100
AcDbLine
  8
0
 62
4
420
65535
370
-1
  6
ByLayer
 10
6.9999999999999973
 20
7.9999999999999947
 30
0.0
 11
6.9999999999999973
 21
8.3333333333333286
 31
0.0
  0
ARC
  5
D8
100
AcDbEntity
  8
0
 62
4
420
65535
370
-1
  6
ByLayer
100
AcDbCircle
 10
6.3333333333333313
 20
8.3333333333333286
 30
0.0
 40
0.6666666666666666
100
AcDbArc
 50
0.0
 51
180.0
  0
LINE
  5
D9
100
AcDbEntity
100
AcDbLine
  8
0
 62
4
420
65535
370
-1
  6
ByLayer
 10
5.6666666666666643
 20
8.3333333333333286
 30
0.0
 11
5.6666666666666643
 21
7.4999999999999947
 31
0.0
  0
ARC
  5
DA
100
AcDbEntity
  8
0
 62
4
420
65535
370
-1
  6
ByLayer
100
AcDbCircle
 10
6.1666666666666643
 20
7.4999999999999947
 30
0.0
 40
0.5
100
AcDbArc
 50
180.0
 51
270.0
  0
LINE
  5
DB
100
AcDbEntity
100
AcDbLine
  8
0
 62
4
420
65535
370
-1
  6
ByLayer
 10
6.1666666666666643
 20
6.9999999999999947
 30
0.0
 11
6.9999999999999973
 21
6.9999999999999947
 31
0.0
  0
ENDBLK
  5
DC
100
AcDbEntity
  8
0
100
AcDbBlockEnd
  0
BLOCK
  5
DD
100
AcDbEntity
  8
0
100
AcDbBlockBegin
  2
steppernema17
 70
0
 10
0.0
 20
0.0
 30
0.0
  3
steppernema17
  1

  0
CIRCLE
  5
DE
100
AcDbEntity
100
AcDbCircle
  8
0
 62
256
370
-1
  6
ByLayer
 10
0.0000000000000036
 20
0.0
 30
0.0
 40
11.0
  0
CIRCLE
  5
DF
100
AcDbEntity
100
AcDbCircle
  8
0
 62
256
370
-1
  6
ByLayer
 10
15.495000000000001
 20
15.4949999999999939
 30
0.0
 40
1.5
  0
CIRCLE
  5
E0
100
AcDbEntity
100
AcDbCircle
  8
0
 62
256
370
-1
  6
ByLayer
 10
15.4949999999999992
 20
-15.4950000000000045
 30
0.0
 40
1.5
  0
CIRCLE
  5
E1
100
AcDbEntity
100
AcDbCircle
  8
0
 62
256
370
-1
  6
ByLayer
 10
-15.495000000000001
 20
-15.4949999999999957
 30
0.0
 40
1.5
  0
CIRCLE
  5
E2
100
AcDbEntity
100
AcDbCircle
  8
0
 62
256
370
-1
  6
ByLayer
 10
-15.4949999999999957
 20
15.4949999999999992
 30
0.0
 40
1.5
  0
ENDBLK
  5
E3
100
AcDbEntity
  8
0
100
AcDbBlockEnd
  0
ENDSEC
  0
SECTION
  2
ENTITIES
  0
LINE
  5
E4
100
AcDbEntity
100
AcDbLine
  8
0
 62
256
370
-1
  6
ByLayer
 10
119.0000000420485833
 20
-137.4971517672573214
 30
0.0
 11
118.9999999561186144
 21
-132.0013185720088984
 31
0.0
  0
LINE
  5
E5
100
AcDbEntity
100
AcDbLine
  8
0
 62
256
370
-1
  6
ByLayer
 10
118.9999999585743353
 20
131.9986814273767664
 30
0.0
 11
118.9999999567331059
 21
137.9986814273768232
 31
0.0
  0
LINE
  5
E6
100
AcDbEntity
100
AcDbLine
  8
0
 62
256
370
-1
  6
ByLayer
 10
118.8848680454064635
 20
-107.0026371307105393
 30
0.0
 11
118.8848694362982172
 21
-106.9973628692906118
 31
0.0
  0
LINE
  5
E7
100
AcDbEntity
100
AcDbLine
  8
0
 62
256
370
-1
  6
ByLayer
 10
-101.140185319648964
 20
-76.371209345002967
 30
0.0
 11
-101.140185319648964
 21
-76.371209345002967
 31
0.0
  0
LINE
  5
E8
100
AcDbEntity
100
AcDbLine
  8
0
 62
256
370
-1
  6
ByLayer
 10
68.9576457078532314
 20
-80.0013185653552341
 30
0.0
 11
68.9576457078532314
 21
-80.0013185653552341
 31
0.0
  0
LINE
  5
E9
100
AcDbEntity
100
AcDbLine
  8
0
 62
256
370
-1
  6
ByLayer
 10
58.9576457078533167
 20
29.9986814346443431
 30
0.0
 11
58.9576457078533167
 21
29.9986814346443431
 31
0.0
  0
LINE
  5
EA
100
AcDbEntity
100
AcDbLine
  8
0
 62
256
370
-1
  6
ByLayer
 10
58.9576457078533025
 20
-30.0013185653547261
 30
0.0
 11
58.9576457078533025
 21
-30.0013185653547261
 31
0.0
  0
LINE
  5
EB
100
AcDbEntity
100
AcDbLine
  8
0
 62
256
370
-1
  6
ByLayer
 10
68.9576457078537999
 20
79.998681434644368
 30
0.0
 11
68.9576457078537999
 21
79.998681434644368
 31
0.0
  0
LINE
  5
EC
100
AcDbEntity
100
AcDbLine
  8
0
 62
256
370
-1
  6
ByLayer
 10
-73.6671926347739543
 20
144.6958536363745225
 30
0.0
 11
-73.6671926347739543
 21
144.6958536363745225
 31
0.0
  0
LINE
  5
ED
100
AcDbEntity
100
AcDbLine
  8
0
 62
256
370
-1
  6
ByLayer
 10
-73.6671926347739543
 20
144.6958536363745225
 30
0.0
 11
-73.6671926347739543
 21
144.6958536363745225
 31
0.0
  0
LINE
  5
EE
100
AcDbEntity
100
AcDbLine
  8
0
 62
256
370
-1
  6
ByLayer
 10
94.0032202138809367
 20
-143.001130996856773
 30
0.0
 11
94.0032202138809367
 21
-143.001130996856773
 31
0.0
  0
INSERT
  5
EF
100
AcDbEntity
100
AcDbBlockReference
  8
0
 62
256
370
-1
  6
ByLayer
  2
bearing hole and guides
 10
-85.9967797861190775
 20
-120.0011309968567446
 30
0.0
 50
360.0
 44
1.0
 45
1.0
  0
INSERT
  5
F0
100
AcDbEntity
100
AcDbBlockReference
  8
0
 62
256
370
-1
  6
ByLayer
  2
bearing hole and guides
 10
44.0032202138803754
 20
-120.0011309968568298
 30
0.0
 50
360.0
 44
1.0
 45
1.0
  0
INSERT
  5
F1
100
AcDbEntity
100
AcDbBlockReference
  8
0
 62
256
370
-1
  6
ByLayer
  2
bearing hole and guides
 10
-86.055269780840689
 20
119.998869003143227
 30
0.0
 50
360.0
 44
1.0
 45
1.0
  0
INSERT
  5
F2
100
AcDbEntity
100
AcDbBlockReference
  8
0
 62
256
370
-1
  6
ByLayer
  2
bearing hole and guides
 10
43.9447302191597799
 20
119.9988690031427723
 30
0.0
 50
360.0
 44
1.0
 45
1.0
  0
INSERT
  5
F3
100
AcDbEntity
100
AcDbBlockReference
  8
0
 62
256
370
-1
  6
ByLayer
  2
tgrips
 10
-96.000000043048658
 20
139.9986814346448796
 30
0.0
 50
360.0
 44
1.0
 45
1.0
  0
INSERT
  5
F4
100
AcDbEntity
100
AcDbBlockReference
  8
0
 62
256
370
-1
  6
ByLayer
  2
tgrips
 10
33.968355082786772
 20
140.0013185653551773
 30
0.0
 50
360.0
 44
1.0
 45
1.0
  0
INSERT
  5
F5
100
AcDbEntity
100
AcDbBlockReference
  8
0
 62
256
370
-1
  6
ByLayer
  2
tgrips
 10
-95.9066449172141944
 20
-140.0013185653547225
 30
0.0
 41
1.0
 42
-1.0
 43
1.0
 50
360.0
 44
1.0
 45
1.0
  0
INSERT
  5
F6
100
AcDbEntity
100
AcDbBlockReference
  8
0
 62
256
370
-1
  6
ByLayer
  2
tgrips
 10
33.9683550827857417
 20
-140.0013185653551488
 30
0.0
 41
1.0
 42
-1.0
 43
1.0
 50
360.0
 44
1.0
 45
1.0
  0
LINE
  5
F7
100
AcDbEntity
100
AcDbLine
  8
0
 62
256
370
-1
  6
ByLayer
 10
118.999999956951342
 20
139.9986814346448227
 30
0.0
 11
103.9683550827867577
 21
140.0013185653546941
 31
0.0
  0
LINE
  5
F8
100
AcDbEntity
100
AcDbLine
  8
0
 62
256
370
-1
  6
ByLayer
 10
33.968355082786772
 20
140.0013185653551773
 30
0.0
 11
-26.0000000430486686
 21
139.9986814346448796
 31
0.0
  0
LINE
  5
F9
100
AcDbEntity
100
AcDbLine
  8
0
 62
256
370
-1
  6
ByLayer
 10
-96.000000043048658
 20
139.9986814346448796
 30
0.0
 11
-121.0000000430491411
 21
139.9986814346447943
 31
0.0
  0
LINE
  5
FA
100
AcDbEntity
100
AcDbLine
  8
0
 62
256
370
-1
  6
ByLayer
 10
-121.0000000430491127
 20
-140.0013185653547225
 30
0.0
 11
-121.0000000430491411
 21
139.9986814346447943
 31
0.0
  0
LINE
  5
FB
100
AcDbEntity
100
AcDbLine
  8
0
 62
256
370
-1
  6
ByLayer
 10
-95.9066449172141944
 20
-140.0013185653547225
 30
0.0
 11
-121.0000000430491127
 21
-140.0013185653547225
 31
0.0
  0
LINE
  5
FC
100
AcDbEntity
100
AcDbLine
  8
0
 62
256
370
-1
  6
ByLayer
 10
33.9683550827857417
 20
-140.0013185653551488
 30
0.0
 11
-25.9066449172137254
 21
-140.0013185653547509
 31
0.0
  0
LINE
  5
FD
100
AcDbEntity
100
AcDbLine
  8
0
 62
256
370
-1
  6
ByLayer
 10
118.9999999569508589
 20
-140.0013185653552341
 30
0.0
 11
101.9999999569508162
 21
-140.0013185653552625
 31
0.0
  0
LINE
  5
FE
100
AcDbEntity
100
AcDbLine
  8
0
 62
256
370
-1
  6
ByLayer
 10
118.999999956951342
 20
139.9986814346448227
 30
0.0
 11
118.9999999569508589
 21
-140.0013185653552341
 31
0.0
  0
ARC
  5
FF
100
AcDbEntity
  8
0
 62
256
370
-1
  6
ByLayer
100
AcDbCircle
 10
38.9999999569508873
 20
-90.0013185653551631
 30
0.0
 40
10.0
100
AcDbArc
 50
270.0
 51
360.0
  0
ARC
  5
100
100
AcDbEntity
  8
0
 62
256
370
-1
  6
ByLayer
100
AcDbCircle
 10
38.9999999569513633
 20
89.9986814346448227
 30
0.0
 40
10.0
100
AcDbArc
 50
360.0
 51
90.0
  0
LINE
  5
101
100
AcDbEntity
100
AcDbLine
  8
0
 62
256
370
-1
  6
ByLayer
 10
48.9999999569508802
 20
-90.0013185653551773
 30
0.0
 11
48.9999999569513989
 21
89.9986814346448227
 31
0.0
  0
INSERT
  5
102
100
AcDbEntity
100
AcDbBlockReference
  8
0
 62
256
370
-1
  6
ByLayer
  2
slot
 10
-116.0552697808398221
 20
99.9947257385738055
 30
0.0
 50
270.0
 44
1.0
 45
1.0
  0
INSERT
  5
103
100
AcDbEntity
100
AcDbBlockReference
  8
0
 62
256
370
-1
  6
ByLayer
  2
slot
 10
-116.0552697808407174
 20
-40.0052742614260737
 30
0.0
 50
270.0
 44
1.0
 45
1.0
  0
INSERT
  5
104
100
AcDbEntity
100
AcDbBlockReference
  8
0
 62
256
370
-1
  6
ByLayer
  2
slot
 10
113.9999999569107416
 20
-100.0039556960652334
 30
0.0
 50
90.0
 44
1.0
 45
1.0
  0
INSERT
  5
105
100
AcDbEntity
100
AcDbBlockReference
  8
0
 62
256
370
-1
  6
ByLayer
  2
slot
 10
113.9999999569509157
 20
39.9960443039344753
 30
0.0
 50
90.0
 44
1.0
 45
1.0
  0
LINE
  5
106
100
AcDbEntity
100
AcDbLine
  8
0
 62
256
370
-1
  6
ByLayer
 10
108.999999956950802
 20
-100.0039556960655887
 30
0.0
 11
108.9999999569508304
 21
-104.0039556960655744
 31
0.0
  0
LINE
  5
107
100
AcDbEntity
100
AcDbLine
  8
0
 62
256
370
-1
  6
ByLayer
 10
108.9999999569508304
 20
-104.0039556960655744
 30
0.0
 11
106.9999999569508873
 21
-104.0039556960655318
 31
0.0
  0
LINE
  5
108
100
AcDbEntity
100
AcDbLine
  8
0
 62
256
370
-1
  6
ByLayer
 10
106.9999999569508873
 20
-104.0039556960655318
 30
0.0
 11
106.9999999569513278
 21
-100.0039556960655602
 31
0.0
  0
LINE
  5
109
100
AcDbEntity
100
AcDbLine
  8
0
 62
256
370
-1
  6
ByLayer
 10
106.9999999569513278
 20
-100.0039556960655602
 30
0.0
 11
108.999999956950802
 21
-100.0039556960655887
 31
0.0
  0
LINE
  5
10A
100
AcDbEntity
100
AcDbLine
  8
0
 62
256
370
-1
  6
ByLayer
 10
103.9999999569507594
 20
-104.0039556960657023
 30
0.0
 11
101.9999999569511999
 21
-104.0039556960657023
 31
0.0
  0
LINE
  5
10B
100
AcDbEntity
100
AcDbLine
  8
0
 62
256
370
-1
  6
ByLayer
 10
101.9999999569511999
 20
-104.0039556960657023
 30
0.0
 11
101.9999999569508446
 21
-100.0039556960655744
 31
0.0
  0
LINE
  5
10C
100
AcDbEntity
100
AcDbLine
  8
0
 62
256
370
-1
  6
ByLayer
 10
101.9999999569508446
 20
-100.0039556960655744
 30
0.0
 11
103.9999999569508304
 21
-100.0039556960655602
 31
0.0
  0
LINE
  5
10D
100
AcDbEntity
100
AcDbLine
  8
0
 62
256
370
-1
  6
ByLayer
 10
103.9999999569508304
 20
-100.0039556960655602
 30
0.0
 11
103.9999999569507594
 21
-104.0039556960657023
 31
0.0
  0
LINE
  5
10E
100
AcDbEntity
100
AcDbLine
  8
0
 62
256
370
-1
  6
ByLayer
 10
108.9999999569509299
 20
103.996044303934454
 30
0.0
 11
108.9999999569513705
 21
99.9960443039344682
 31
0.0
  0
LINE
  5
10F
100
AcDbEntity
100
AcDbLine
  8
0
 62
256
370
-1
  6
ByLayer
 10
108.9999999569513705
 20
99.9960443039344682
 30
0.0
 11
106.9999999569513136
 21
99.9960443039344113
 31
0.0
  0
LINE
  5
110
100
AcDbEntity
100
AcDbLine
  8
0
 62
256
370
-1
  6
ByLayer
 10
106.9999999569513136
 20
99.9960443039344113
 30
0.0
 11
106.9999999569509299
 21
103.9960443039344398
 31
0.0
  0
LINE
  5
111
100
AcDbEntity
100
AcDbLine
  8
0
 62
256
370
-1
  6
ByLayer
 10
106.9999999569509299
 20
103.9960443039344398
 30
0.0
 11
108.9999999569509299
 21
103.996044303934454
 31
0.0
  0
LINE
  5
112
100
AcDbEntity
100
AcDbLine
  8
0
 62
256
370
-1
  6
ByLayer
 10
103.9999999569508873
 20
99.9960443039344256
 30
0.0
 11
101.999999956951342
 21
99.9960443039344824
 31
0.0
  0
LINE
  5
113
100
AcDbEntity
100
AcDbLine
  8
0
 62
256
370
-1
  6
ByLayer
 10
101.999999956951342
 20
99.9960443039344824
 30
0.0
 11
101.9999999569513847
 21
103.9960443039344682
 31
0.0
  0
LINE
  5
114
100
AcDbEntity
100
AcDbLine
  8
0
 62
256
370
-1
  6
ByLayer
 10
101.9999999569513847
 20
103.9960443039344682
 30
0.0
 11
103.9999999569513705
 21
103.9960443039344682
 31
0.0
  0
LINE
  5
115
100
AcDbEntity
100
AcDbLine
  8
0
 62
256
370
-1
  6
ByLayer
 10
103.9999999569513705
 20
103.9960443039344682
 30
0.0
 11
103.9999999569508873
 21
99.9960443039344256
 31
0.0
  0
ARC
  5
116
100
AcDbEntity
  8
0
 62
256
370
-1
  6
ByLayer
100
AcDbCircle
 10
106.999999956951342
 20
132.9960443039344682
 30
0.0
 40
2.0
100
AcDbArc
 50
360.0
 51
90.0
  0
LINE
  5
117
100
AcDbEntity
100
AcDbLine
  8
0
 62
256
370
-1
  6
ByLayer
 10
108.9999999569513989
 20
132.9960443039344682
 30
0.0
 11
108.9999999569509299
 21
121.9960443039344824
 31
0.0
  0
ARC
  5
118
100
AcDbEntity
  8
0
 62
256
370
-1
  6
ByLayer
100
AcDbCircle
 10
106.9999999569509157
 20
121.9960443039344398
 30
0.0
 40
2.0
100
AcDbArc
 50
270.0
 51
360.0
  0
LINE
  5
119
100
AcDbEntity
100
AcDbLine
  8
0
 62
256
370
-1
  6
ByLayer
 10
106.9999999569513562
 20
119.9960443039344824
 30
0.0
 11
95.9999999569513847
 21
119.9960443039344398
 31
0.0
  0
ARC
  5
11A
100
AcDbEntity
  8
0
 62
256
370
-1
  6
ByLayer
100
AcDbCircle
 10
95.9999999569508873
 20
121.996044303934454
 30
0.0
 40
2.0
100
AcDbArc
 50
180.0
 51
270.0
  0
LINE
  5
11B
100
AcDbEntity
100
AcDbLine
  8
0
 62
256
370
-1
  6
ByLayer
 10
93.9999999569513705
 20
121.9960443039344398
 30
0.0
 11
93.9999999569513562
 21
132.996044303934525
 31
0.0
  0
LINE
  5
11C
100
AcDbEntity
100
AcDbLine
  8
0
 62
256
370
-1
  6
ByLayer
 10
95.9999999569508873
 20
134.9960443039344966
 30
0.0
 11
106.999999956951342
 21
134.9960443039344398
 31
0.0
  0
ARC
  5
11D
100
AcDbEntity
  8
0
 62
256
370
-1
  6
ByLayer
100
AcDbCircle
 10
95.9999999569514131
 20
132.9960443039349229
 30
0.0
 40
2.0
100
AcDbArc
 50
90.0
 51
180.0
  0
ARC
  5
11E
100
AcDbEntity
  8
0
 62
256
370
-1
  6
ByLayer
100
AcDbCircle
 10
106.9999999569508162
 20
-122.0039556960656171
 30
0.0
 40
2.0
100
AcDbArc
 50
360.0
 51
90.0
  0
LINE
  5
11F
100
AcDbEntity
100
AcDbLine
  8
0
 62
256
370
-1
  6
ByLayer
 10
106.9999999569508304
 20
-120.0039556960656029
 30
0.0
 11
95.9999999569508162
 21
-120.0039556960655887
 31
0.0
  0
ARC
  5
120
100
AcDbEntity
  8
0
 62
256
370
-1
  6
ByLayer
100
AcDbCircle
 10
95.9999999569508162
 20
-122.0039556960655744
 30
0.0
 40
2.0
100
AcDbArc
 50
90.0
 51
180.0
  0
LINE
  5
121
100
AcDbEntity
100
AcDbLine
  8
0
 62
256
370
-1
  6
ByLayer
 10
93.9999999569508304
 20
-122.0039556960651055
 30
0.0
 11
93.9999999569507878
 21
-133.0039556960655602
 31
0.0
  0
ARC
  5
122
100
AcDbEntity
  8
0
 62
256
370
-1
  6
ByLayer
100
AcDbCircle
 10
95.9999999569508731
 20
-133.0039556960655602
 30
0.0
 40
2.0
100
AcDbArc
 50
180.0
 51
270.0
  0
LINE
  5
123
100
AcDbEntity
100
AcDbLine
  8
0
 62
256
370
-1
  6
ByLayer
 10
95.9999999569507736
 20
-135.0039556960655887
 30
0.0
 11
106.9999999569508589
 21
-135.0039556960655318
 31
0.0
  0
LINE
  5
124
100
AcDbEntity
100
AcDbLine
  8
0
 62
256
370
-1
  6
ByLayer
 10
108.9999999569508304
 20
-133.0039556960655602
 30
0.0
 11
108.9999999569509015
 21
-122.0039556960655602
 31
0.0
  0
ARC
  5
125
100
AcDbEntity
  8
0
 62
256
370
-1
  6
ByLayer
100
AcDbCircle
 10
106.999999956950802
 20
-133.0039556960655602
 30
0.0
 40
2.0
100
AcDbArc
 50
270.0
 51
360.0
  0
ARC
  5
126
100
AcDbEntity
  8
0
 62
256
370
-1
  6
ByLayer
100
AcDbCircle
 10
86.9788229193327425
 20
-50.0019778480318635
 30
0.0
 40
4.0
100
AcDbArc
 50
270.0
 51
90.0
  0
ARC
  5
127
100
AcDbEntity
  8
0
 62
256
370
-1
  6
ByLayer
100
AcDbCircle
 10
61.0211769945690534
 20
-50.0059335440987383
 30
0.0
 40
4.0
100
AcDbArc
 50
90.0
 51
270.0
  0
LINE
  5
128
100
AcDbEntity
100
AcDbLine
  8
0
 62
256
370
-1
  6
ByLayer
 10
60.9741607468822266
 20
-54.0056572186108639
 30
0.0
 11
86.978822919332714
 21
-54.0019778480314372
 31
0.0
  0
LINE
  5
129
100
AcDbEntity
100
AcDbLine
  8
0
 62
256
370
-1
  6
ByLayer
 10
61.0211769945690108
 20
-46.0059335440983403
 30
0.0
 11
86.978822919333183
 21
-46.0019778480318635
 31
0.0
  0
ARC
  5
12A
100
AcDbEntity
  8
0
 62
256
370
-1
  6
ByLayer
100
AcDbCircle
 10
86.9788229193332256
 20
49.9980221519681436
 30
0.0
 40
4.0
100
AcDbArc
 50
270.0
 51
90.0
  0
ARC
  5
12B
100
AcDbEntity
  8
0
 62
256
370
-1
  6
ByLayer
100
AcDbCircle
 10
61.0211769945695082
 20
49.9940664559012333
 30
0.0
 40
4.0
100
AcDbArc
 50
90.0
 51
270.0
  0
LINE
  5
12C
100
AcDbEntity
100
AcDbLine
  8
0
 62
256
370
-1
  6
ByLayer
 10
60.9741607468822693
 20
45.994342781389129
 30
0.0
 11
86.9788229193332256
 21
45.9980221519681507
 31
0.0
  0
LINE
  5
12D
100
AcDbEntity
100
AcDbLine
  8
0
 62
256
370
-1
  6
ByLayer
 10
61.0211769945690534
 20
53.9940664559012262
 30
0.0
 11
86.9788229193327851
 21
53.9980221519676817
 31
0.0
  0
LINE
  5
12E
100
AcDbEntity
100
AcDbLine
  8
0
 62
256
370
-1
  6
ByLayer
 10
-63.400000043049161
 20
108.0013185653552057
 30
0.0
 11
-63.400000043049161
 21
112.0013185653551773
 31
0.0
  0
LINE
  5
12F
100
AcDbEntity
100
AcDbLine
  8
0
 62
256
370
-1
  6
ByLayer
 10
-58.6000000430485457
 20
112.0013185653551631
 30
0.0
 11
-58.6000000430489507
 21
108.0013185653551915
 31
0.0
  0
ARC
  5
130
100
AcDbEntity
  8
0
 62
256
370
-1
  6
ByLayer
100
AcDbCircle
 10
-61.0000000430486509
 20
112.0013185653551915
 30
0.0
 40
2.3999999999999999
100
AcDbArc
 50
360.0
 51
180.0
  0
ARC
  5
131
100
AcDbEntity
  8
0
 62
256
370
-1
  6
ByLayer
100
AcDbCircle
 10
-61.0000000430490203
 20
108.0013185653552341
 30
0.0
 40
2.3999999999999999
100
AcDbArc
 50
180.0
 51
360.0
  0
LINE
  5
132
100
AcDbEntity
100
AcDbLine
  8
0
 62
256
370
-1
  6
ByLayer
 10
-63.4000000430492037
 20
-111.9986814346443253
 30
0.0
 11
-63.4000000430492321
 21
-107.9986814346447943
 31
0.0
  0
LINE
  5
133
100
AcDbEntity
100
AcDbLine
  8
0
 62
256
370
-1
  6
ByLayer
 10
-58.6000000430486025
 20
-107.9986814346447801
 30
0.0
 11
-58.6000000430490431
 21
-111.9986814346447801
 31
0.0
  0
ARC
  5
134
100
AcDbEntity
  8
0
 62
256
370
-1
  6
ByLayer
100
AcDbCircle
 10
-61.0000000430486722
 20
-107.9986814346447801
 30
0.0
 40
2.3999999999999999
100
AcDbArc
 50
360.0
 51
180.0
  0
ARC
  5
135
100
AcDbEntity
  8
0
 62
256
370
-1
  6
ByLayer
100
AcDbCircle
 10
-61.000000043049063
 20
-111.9986814346443538
 30
0.0
 40
2.3999999999999999
100
AcDbArc
 50
180.0
 51
360.0
  0
LINE
  5
136
100
AcDbEntity
100
AcDbLine
  8
0
 62
256
370
-1
  6
ByLayer
 10
16.5999999569506755
 20
-111.9986814346448227
 30
0.0
 11
16.5999999569507928
 21
-107.9986814346448085
 31
0.0
  0
LINE
  5
137
100
AcDbEntity
100
AcDbLine
  8
0
 62
256
370
-1
  6
ByLayer
 10
21.399999956951401
 20
-107.9986814346447943
 30
0.0
 11
21.399999956950861
 21
-111.9986814346448085
 31
0.0
  0
ARC
  5
138
100
AcDbEntity
  8
0
 62
256
370
-1
  6
ByLayer
100
AcDbCircle
 10
18.9999999569509121
 20
-107.9986814346448085
 30
0.0
 40
2.3999999999999999
100
AcDbArc
 50
360.0
 51
180.0
  0
ARC
  5
139
100
AcDbEntity
  8
0
 62
256
370
-1
  6
ByLayer
100
AcDbCircle
 10
18.9999999569507985
 20
-111.9986814346448085
 30
0.0
 40
2.3999999999999999
100
AcDbArc
 50
180.0
 51
360.0
  0
LINE
  5
13A
100
AcDbEntity
100
AcDbLine
  8
0
 62
256
370
-1
  6
ByLayer
 10
16.5999999569508283
 20
108.0013185653551631
 30
0.0
 11
16.5999999569512866
 21
112.0013185653551773
 31
0.0
  0
LINE
  5
13B
100
AcDbEntity
100
AcDbLine
  8
0
 62
256
370
-1
  6
ByLayer
 10
21.3999999569514792
 20
112.0013185653552057
 30
0.0
 11
21.3999999569514401
 21
108.0013185653551488
 31
0.0
  0
ARC
  5
13C
100
AcDbEntity
  8
0
 62
256
370
-1
  6
ByLayer
100
AcDbCircle
 10
18.999999956951374
 20
112.0013185653551773
 30
0.0
 40
2.3999999999999999
100
AcDbArc
 50
360.0
 51
180.0
  0
ARC
  5
13D
100
AcDbEntity
  8
0
 62
256
370
-1
  6
ByLayer
100
AcDbCircle
 10
18.9999999569513811
 20
108.0013185653551631
 30
0.0
 40
2.3999999999999999
100
AcDbArc
 50
180.0
 51
360.0
  0
ARC
  5
13E
100
AcDbEntity
  8
0
 62
256
370
-1
  6
ByLayer
100
AcDbCircle
 10
-91.0000000430490417
 20
90.0013185653552625
 30
0.0
 40
10.0
100
AcDbArc
 50
90.0
 51
180.0
  0
LINE
  5
13F
100
AcDbEntity
100
AcDbLine
  8
0
 62
256
370
-1
  6
ByLayer
 10
38.9999999569513562
 20
99.9986814346448227
 30
0.0
 11
-91.0000000430486438
 21
100.0013185653552199
 31
0.0
  0
ARC
  5
140
100
AcDbEntity
  8
0
 62
256
370
-1
  6
ByLayer
100
AcDbCircle
 10
78.9576457078533451
 20
-0.001318564915232
 30
0.0
 40
30.0589489742437479
100
AcDbArc
 50
175.294731487420961
 51
184.7052685125790958
  0
INSERT
  5
141
100
AcDbEntity
100
AcDbBlockReference
  8
0
 62
256
370
-1
  6
ByLayer
  2
steppernema17
 10
85.999999956951342
 20
0.0
 30
0.0
 50
90.0
 44
1.0
 45
1.0
  0
CIRCLE
  5
142
100
AcDbEntity
100
AcDbCircle
  8
0
 62
256
370
-1
  6
ByLayer
 10
83.999999956951342
 20
99.9999999999999858
 30
0.0
 40
3.0
  0
LINE
  5
143
100
AcDbEntity
100
AcDbLine
  8
0
 62
256
370
-1
  6
ByLayer
 10
58.717157243644543
 20
-78.1125884092315346
 30
0.0
 11
55.8887301188983798
 21
-75.2841612844854922
 31
0.0
  0
LINE
  5
144
100
AcDbEntity
100
AcDbLine
  8
0
 62
256
370
-1
  6
ByLayer
 10
59.2828426685937515
 20
-71.890048734789687
 30
0.0
 11
62.1112697933401066
 21
-74.718475859535971
 31
0.0
  0
ARC
  5
145
100
AcDbEntity
  8
0
 62
256
370
-1
  6
ByLayer
100
AcDbCircle
 10
57.585786393746055
 20
-73.5871050096375967
 30
0.0
 40
2.3999999999999999
100
AcDbArc
 50
45.0
 51
225.0
  0
ARC
  5
146
100
AcDbEntity
  8
0
 62
256
370
-1
  6
ByLayer
100
AcDbCircle
 10
60.4142135184922324
 20
-76.4155321343836675
 30
0.0
 40
2.3999999999999999
100
AcDbArc
 50
225.0
 51
45.0
  0
LINE
  5
147
100
AcDbEntity
100
AcDbLine
  8
0
 62
256
370
-1
  6
ByLayer
 10
62.1112697933401989
 20
74.7158387155145221
 30
0.0
 11
59.2828426685939647
 21
71.8874115907685933
 31
0.0
  0
LINE
  5
148
100
AcDbEntity
100
AcDbLine
  8
0
 62
256
370
-1
  6
ByLayer
 10
55.8887301188986001
 20
75.2815241404636737
 30
0.0
 11
58.717157243644813
 21
78.1099512652101566
 31
0.0
  0
ARC
  5
149
100
AcDbEntity
  8
0
 62
256
370
-1
  6
ByLayer
100
AcDbCircle
 10
57.5857863937460621
 20
73.584467865616233
 30
0.0
 40
2.3999999999999999
100
AcDbArc
 50
135.0
 51
315.0
  0
ARC
  5
14A
100
AcDbEntity
  8
0
 62
256
370
-1
  6
ByLayer
100
AcDbCircle
 10
60.4142135184922893
 20
76.4128949903624601
 30
0.0
 40
2.3999999999999999
100
AcDbArc
 50
315.0
 51
135.0
  0
LINE
  5
14B
100
AcDbEntity
100
AcDbLine
  8
0
 62
256
370
-1
  6
ByLayer
 10
-101.0000000430485869
 20
90.001318565355632
 30
0.0
 11
-101.0000000430491411
 21
-89.9986814325867783
 31
0.0
  0
LINE
  5
14C
100
AcDbEntity
100
AcDbLine
  8
0
 62
256
370
-1
  6
ByLayer
 10
-91.00020289925763
 20
-99.9986814305292739
 30
0.0
 11
38.9999999569508873
 21
-100.0013185653551631
 31
0.0
  0
ARC
  5
14D
100
AcDbEntity
  8
0
 62
256
370
-1
  6
ByLayer
100
AcDbCircle
 10
-91.0000000430491411
 20
-89.9986814325867925
 30
0.0
 40
10.0
100
AcDbArc
 50
180.0
 51
269.998837719540461
  0
ENDSEC
  0
SECTION
  2
OBJECTS
  0
DICTIONARY
  5
C
100
AcDbDictionary
280
0
281
1
  3
ACAD_GROUP
350
D
  3
ACAD_LAYOUT
350
1A
  3
ACAD_MLINESTYLE
350
17
  3
ACAD_PLOTSETTINGS
350
19
  3
ACAD_PLOTSTYLENAME
350
E
  3
AcDbVariableDictionary
350
14E
  0
DICTIONARY
  5
D
100
AcDbDictionary
280
0
281
1
  0
ACDBDICTIONARYWDFLT
  5
E
100
AcDbDictionary
281
1
  3
Normal
350
F
100
AcDbDictionaryWithDefault
340
F
  0
ACDBPLACEHOLDER
  5
F
  0
DICTIONARY
  5
17
100
AcDbDictionary
280
0
281
1
  3
Standard
350
18
  0
MLINESTYLE
  5
18
100
AcDbMlineStyle
  2
STANDARD
 70
0
  3

 62
256
 51
90.0
 52
90.0
 71
2
 49
0.5
 62
256
  6
BYLAYER
 49
-0.5
 62
256
  6
BYLAYER
  0
DICTIONARY
  5
19
100
AcDbDictionary
280
0
281
1
  0
DICTIONARY
  5
1A
100
AcDbDictionary
281
1
  3
Layout1
350
1E
  3
Layout2
350
26
  3
Model
350
22
  0
LAYOUT
  5
1E
100
AcDbPlotSettings
  1

  2
C:\Program Files\AutoCAD 2002\plotters\DWF ePlot (optimized for plotting).pc3
  4

  6

 40
0.0
 41
0.0
 42
0.0
 43
0.0
 44
0.0
 45
0.0
 46
0.0
 47
0.0
 48
0.0
 49
0.0
140
0.0
141
0.0
142
1.0
143
1.0
 70
688
 72
0
 73
0
 74
5
  7

 75
16
147
1.0
148
0.0
149
0.0
100
AcDbLayout
  1
Layout1
 70
1
 71
1
 10
0.0
 20
0.0
 11
420.0
 21
297.0
 12
0.0
 22
0.0
 32
0.0
 14
100000000000000000000.0
 24
100000000000000000000.0
 34
100000000000000000000.0
 15
-100000000000000000000.0
 25
-100000000000000000000.0
 35
-100000000000000000000.0
146
0.0
 13
0.0
 23
0.0
 33
0.0
 16
1.0
 26
0.0
 36
0.0
 17
0.0
 27
1.0
 37
0.0
 76
0
330
1B
  0
LAYOUT
  5
22
100
AcDbPlotSettings
  1

  2
C:\Program Files\AutoCAD 2002\plotters\DWF ePlot (optimized for plotting).pc3
  4

  6

 40
0.0
 41
0.0
 42
0.0
 43
0.0
 44
0.0
 45
0.0
 46
0.0
 47
0.0
 48
0.0
 49
0.0
140
0.0
141
0.0
142
1.0
143
1.0
 70
1712
 72
0
 73
0
 74
0
  7

 75
0
147
1.0
148
0.0
149
0.0
100
AcDbLayout
  1
Model
 70
1
 71
0
 10
0.0
 20
0.0
 11
12.0
 21
9.0
 12
0.0
 22
0.0
 32
0.0
 14
0.0
 24
0.0
 34
0.0
 15
0.0
 25
0.0
 35
0.0
146
0.0
 13
0.0
 23
0.0
 33
0.0
 16
1.0
 26
0.0
 36
0.0
 17
0.0
 27
1.0
 37
0.0
 76
0
330
1F
  0
LAYOUT
  5
26
100
AcDbPlotSettings
  1

  2
C:\Program Files\AutoCAD 2002\plotters\DWF ePlot (optimized for plotting).pc3
  4

  6

 40
0.0
 41
0.0
 42
0.0
 43
0.0
 44
0.0
 45
0.0
 46
0.0
 47
0.0
 48
0.0
 49
0.0
140
0.0
141
0.0
142
1.0
143
1.0
 70
688
 72
0
 73
0
 74
5
  7

 75
16
147
1.0
148
0.0
149
0.0
100
AcDbLayout
  1
Layout2
 70
1
 71
2
 10
0.0
 20
0.0
 11
12.0
 21
9.0
 12
0.0
 22
0.0
 32
0.0
 14
0.0
 24
0.0
 34
0.0
 15
0.0
 25
0.0
 35
0.0
146
0.0
 13
0.0
 23
0.0
 33
0.0
 16
1.0
 26
0.0
 36
0.0
 17
0.0
 27
1.0
 37
0.0
 76
0
330
23
  0
DICTIONARY
  5
14E
100
AcDbDictionary
281
1
  3
DIMASSOC
350
150
  3
HIDETEXT
350
14F
  0
DICTIONARYVAR
  5
14F
100
DictionaryVariables
280
0
  1
2
  0
DICTIONARYVAR
  5
150
100
DictionaryVariables
280
0
  1
1
  0
ENDSEC
  0
EOF
