999
dxflib 2.2.0.0
  0
SECTION
  2
HEADER
  9
$ACADVER
  1
AC1015
  9
$HANDSEED
  5
FFFF
  9
$DIMASZ
 40
2.5
  9
$PLIMMIN
 10
0.0
 20
0.0
  9
$DIMEXE
 40
1.25
  9
$DIMGAP
 40
0.625
  9
$PLIMMAX
 10
210.0
 20
297.0
  9
$INSUNITS
 70
4
  9
$DIMSTYLE
  2
Standard
  9
$CLAYER
  8
Layer 4
  9
$DIMEXO
 40
0.625
  9
$DIMTXT
 40
2.5
  9
$CLAYER
  8
Layer 4
  0
ENDSEC
  0
SECTION
  2
TABLES
  0
TABLE
  2
VPORT
  5
8
100
AcDbSymbolTable
 70
1
  0
VPORT
  5
30
100
AcDbSymbolTableRecord
100
AcDbViewportTableRecord
  2
*Active
 70
0
 10
0.0
 20
0.0
 11
1.0
 21
1.0
 12
286.3055555555554861
 22
148.5
 13
0.0
 23
0.0
 14
10.0
 24
10.0
 15
10.0
 25
10.0
 16
0.0
 26
0.0
 36
1.0
 17
0.0
 27
0.0
 37
0.0
 40
297.0
 41
1.92798353909465
 42
50.0
 43
0.0
 44
0.0
 50
0.0
 51
0.0
 71
0
 72
100
 73
1
 74
3
 75
1
 76
1
 77
0
 78
0
281
0
 65
1
110
0.0
120
0.0
130
0.0
111
1.0
121
0.0
131
0.0
112
0.0
122
1.0
132
0.0
 79
0
146
0.0
  0
ENDTAB
  0
TABLE
  2
LTYPE
  5
5
100
AcDbSymbolTable
 70
21
  0
LTYPE
  5
14
100
AcDbSymbolTableRecord
100
AcDbLinetypeTableRecord
  2
ByBlock
 70
0
  3

 72
65
 73
0
 40
0.0
  0
LTYPE
  5
15
100
AcDbSymbolTableRecord
100
AcDbLinetypeTableRecord
  2
ByLayer
 70
0
  3

 72
65
 73
0
 40
0.0
  0
LTYPE
  5
16
100
AcDbSymbolTableRecord
100
AcDbLinetypeTableRecord
  2
CONTINUOUS
 70
0
  3
Solid line
 72
65
 73
0
 40
0.0
  0
LTYPE
  5
31
100
AcDbSymbolTableRecord
100
AcDbLinetypeTableRecord
  2
DOT
 70
0
  3
Dot . . . . . . . . . . . . . . . . . . . . . .
 72
65
 73
2
 40
6.3499999999999996
 49
0.0
 74
0
 49
-6.3499999999999996
 74
0
  0
LTYPE
  5
32
100
AcDbSymbolTableRecord
100
AcDbLinetypeTableRecord
  2
DOT2
 70
0
  3
Dot (.5x) .....................................
 72
65
 73
2
 40
3.1749999999999998
 49
0.0
 74
0
 49
-3.1749999999999998
 74
0
  0
LTYPE
  5
33
100
AcDbSymbolTableRecord
100
AcDbLinetypeTableRecord
  2
DOTX2
 70
0
  3
Dot (2x) .  .  .  .  .  .  .  .  .  .  .  .  .
 72
65
 73
2
 40
12.6999999999999993
 49
0.0
 74
0
 49
-12.6999999999999993
 74
0
  0
LTYPE
  5
34
100
AcDbSymbolTableRecord
100
AcDbLinetypeTableRecord
  2
DASHED
 70
0
  3
Dashed __ __ __ __ __ __ __ __ __ __ __ __ __ _
 72
65
 73
2
 40
19.0500000000000007
 49
12.6999999999999993
 74
0
 49
-6.3499999999999996
 74
0
  0
LTYPE
  5
35
100
AcDbSymbolTableRecord
100
AcDbLinetypeTableRecord
  2
DASHED2
 70
0
  3
Dashed (.5x) _ _ _ _ _ _ _ _ _ _ _ _ _ _ _ _ _
 72
65
 73
2
 40
9.5250000000000004
 49
6.3499999999999996
 74
0
 49
-3.1749999999999998
 74
0
  0
LTYPE
  5
36
100
AcDbSymbolTableRecord
100
AcDbLinetypeTableRecord
  2
DASHEDX2
 70
0
  3
Dashed (2x) ____  ____  ____  ____  ____  ___
 72
65
 73
2
 40
38.1000000000000014
 49
25.3999999999999986
 74
0
 49
-12.6999999999999993
 74
0
  0
LTYPE
  5
37
100
AcDbSymbolTableRecord
100
AcDbLinetypeTableRecord
  2
DASHDOT
 70
0
  3
Dash dot __ . __ . __ . __ . __ . __ . __ . __
 72
65
 73
4
 40
25.3999999999999986
 49
12.6999999999999993
 74
0
 49
-6.3499999999999996
 74
0
 49
0.0
 74
0
 49
-6.3499999999999996
 74
0
  0
LTYPE
  5
38
100
AcDbSymbolTableRecord
100
AcDbLinetypeTableRecord
  2
DASHDOT2
 70
0
  3
Dash dot (.5x) _._._._._._._._._._._._._._._.
 72
65
 73
4
 40
12.6999999999999993
 49
6.3499999999999996
 74
0
 49
-3.1749999999999998
 74
0
 49
0.0
 74
0
 49
-3.1749999999999998
 74
0
  0
LTYPE
  5
39
100
AcDbSymbolTableRecord
100
AcDbLinetypeTableRecord
  2
DASHDOTX2
 70
0
  3
Dash dot (2x) ____  .  ____  .  ____  .  ___
 72
65
 73
4
 40
50.7999999999999972
 49
25.3999999999999986
 74
0
 49
-12.6999999999999993
 74
0
 49
0.0
 74
0
 49
-12.6999999999999993
 74
0
  0
LTYPE
  5
3A
100
AcDbSymbolTableRecord
100
AcDbLinetypeTableRecord
  2
DIVIDE
 70
0
  3
Divide ____ . . ____ . . ____ . . ____ . . ____
 72
65
 73
6
 40
31.75
 49
12.6999999999999993
 74
0
 49
-6.3499999999999996
 74
0
 49
0.0
 74
0
 49
-6.3499999999999996
 74
0
 49
0.0
 74
0
 49
-6.3499999999999996
 74
0
  0
LTYPE
  5
3B
100
AcDbSymbolTableRecord
100
AcDbLinetypeTableRecord
  2
DIVIDE2
 70
0
  3
Divide (.5x) __..__..__..__..__..__..__..__.._
 72
65
 73
6
 40
15.875
 49
6.3499999999999996
 74
0
 49
-3.1749999999999998
 74
0
 49
0.0
 74
0
 49
-3.1749999999999998
 74
0
 49
0.0
 74
0
 49
-3.1749999999999998
 74
0
  0
LTYPE
  5
3C
100
AcDbSymbolTableRecord
100
AcDbLinetypeTableRecord
  2
DIVIDEX2
 70
0
  3
Divide (2x) ________  .  .  ________  .  .  _
 72
65
 73
6
 40
63.5
 49
25.3999999999999986
 74
0
 49
-12.6999999999999993
 74
0
 49
0.0
 74
0
 49
-12.6999999999999993
 74
0
 49
0.0
 74
0
 49
-12.6999999999999993
 74
0
  0
LTYPE
  5
3D
100
AcDbSymbolTableRecord
100
AcDbLinetypeTableRecord
  2
CENTER
 70
0
  3
Center ____ _ ____ _ ____ _ ____ _ ____ _ ____
 72
65
 73
4
 40
50.7999999999999972
 49
31.75
 74
0
 49
-6.3499999999999996
 74
0
 49
6.3499999999999996
 74
0
 49
-6.3499999999999996
 74
0
  0
LTYPE
  5
3E
100
AcDbSymbolTableRecord
100
AcDbLinetypeTableRecord
  2
CENTER2
 70
0
  3
Center (.5x) ___ _ ___ _ ___ _ ___ _ ___ _ ___
 72
65
 73
4
 40
28.5749999999999993
 49
19.0500000000000007
 74
0
 49
-3.1749999999999998
 74
0
 49
3.1749999999999998
 74
0
 49
-3.1749999999999998
 74
0
  0
LTYPE
  5
3F
100
AcDbSymbolTableRecord
100
AcDbLinetypeTableRecord
  2
CENTERX2
 70
0
  3
Center (2x) ________  __  ________  __  _____
 72
65
 73
4
 40
101.5999999999999943
 49
63.5
 74
0
 49
-12.6999999999999993
 74
0
 49
12.6999999999999993
 74
0
 49
-12.6999999999999993
 74
0
  0
LTYPE
  5
40
100
AcDbSymbolTableRecord
100
AcDbLinetypeTableRecord
  2
BORDER
 70
0
  3
Border __ __ . __ __ . __ __ . __ __ . __ __ .
 72
65
 73
6
 40
44.4500000000000028
 49
12.6999999999999993
 74
0
 49
-6.3499999999999996
 74
0
 49
12.6999999999999993
 74
0
 49
-6.3499999999999996
 74
0
 49
0.0
 74
0
 49
-6.3499999999999996
 74
0
  0
LTYPE
  5
41
100
AcDbSymbolTableRecord
100
AcDbLinetypeTableRecord
  2
BORDER2
 70
0
  3
Border (.5x) __.__.__.__.__.__.__.__.__.__.__.
 72
65
 73
6
 40
22.2250000000000014
 49
6.3499999999999996
 74
0
 49
-3.1749999999999998
 74
0
 49
6.3499999999999996
 74
0
 49
-3.1749999999999998
 74
0
 49
0.0
 74
0
 49
-3.1749999999999998
 74
0
  0
LTYPE
  5
42
100
AcDbSymbolTableRecord
100
AcDbLinetypeTableRecord
  2
BORDERX2
 70
0
  3
Border (2x) ____  ____  .  ____  ____  .  ___
 72
65
 73
6
 40
88.9000000000000057
 49
25.3999999999999986
 74
0
 49
-12.6999999999999993
 74
0
 49
25.3999999999999986
 74
0
 49
-12.6999999999999993
 74
0
 49
0.0
 74
0
 49
-12.6999999999999993
 74
0
  0
ENDTAB
  0
TABLE
  2
LAYER
  5
2
100
AcDbSymbolTable
 70
32
  0
LAYER
  5
10
100
AcDbSymbolTableRecord
100
AcDbLayerTableRecord
  2
0
 70
0
 62
7
420
16777215
  6
CONTINUOUS
370
0
390
F
  0
LAYER
  5
43
100
AcDbSymbolTableRecord
100
AcDbLayerTableRecord
  2
Rotor Plate
 70
0
 62
7
420
16777215
  6
CONTINUOUS
370
0
390
F
  0
LAYER
  5
44
100
AcDbSymbolTableRecord
100
AcDbLayerTableRecord
  2
Layer 8
 70
0
 62
7
420
16777215
  6
CONTINUOUS
370
0
390
F
  0
LAYER
  5
45
100
AcDbSymbolTableRecord
100
AcDbLayerTableRecord
  2
Layer 7
 70
0
 62
7
420
16777215
  6
CONTINUOUS
370
0
390
F
  0
LAYER
  5
46
100
AcDbSymbolTableRecord
100
AcDbLayerTableRecord
  2
Layer 6
 70
0
 62
7
420
16777215
  6
CONTINUOUS
370
0
390
F
  0
LAYER
  5
47
100
AcDbSymbolTableRecord
100
AcDbLayerTableRecord
  2
Layer 4
 70
0
 62
7
420
16777215
  6
CONTINUOUS
370
0
390
F
  0
LAYER
  5
48
100
AcDbSymbolTableRecord
100
AcDbLayerTableRecord
  2
Layer 3
 70
0
 62
7
420
16777215
  6
CONTINUOUS
370
0
390
F
  0
LAYER
  5
49
100
AcDbSymbolTableRecord
100
AcDbLayerTableRecord
  2
Layer 2
 70
0
 62
7
420
16777215
  6
CONTINUOUS
370
0
390
F
  0
LAYER
  5
4A
100
AcDbSymbolTableRecord
100
AcDbLayerTableRecord
  2
Layer 1
 70
0
 62
7
420
16777215
  6
CONTINUOUS
370
0
390
F
  0
LAYER
  5
4B
100
AcDbSymbolTableRecord
100
AcDbLayerTableRecord
  2
Motor Gear
 70
0
 62
7
420
16777215
  6
CONTINUOUS
370
0
390
F
  0
LAYER
  5
4C
100
AcDbSymbolTableRecord
100
AcDbLayerTableRecord
  2
Rotor Gear
 70
0
 62
7
420
16777215
  6
CONTINUOUS
370
0
390
F
  0
LAYER
  5
4D
100
AcDbSymbolTableRecord
100
AcDbLayerTableRecord
  2
Layer 8 Text
 70
0
 62
4
420
65535
  6
CONTINUOUS
370
0
390
F
  0
LAYER
  5
4E
100
AcDbSymbolTableRecord
100
AcDbLayerTableRecord
  2
Layer 7 Text
 70
0
 62
4
420
65535
  6
CONTINUOUS
370
0
390
F
  0
LAYER
  5
4F
100
AcDbSymbolTableRecord
100
AcDbLayerTableRecord
  2
Layer 6 Text
 70
0
 62
4
420
65535
  6
CONTINUOUS
370
0
390
F
  0
LAYER
  5
50
100
AcDbSymbolTableRecord
100
AcDbLayerTableRecord
  2
Layer 4 Text
 70
0
 62
4
420
65535
  6
CONTINUOUS
370
0
390
F
  0
LAYER
  5
51
100
AcDbSymbolTableRecord
100
AcDbLayerTableRecord
  2
Layer 3 Text
 70
0
 62
4
420
65535
  6
CONTINUOUS
370
0
390
F
  0
LAYER
  5
52
100
AcDbSymbolTableRecord
100
AcDbLayerTableRecord
  2
Layer 2 Text
 70
0
 62
4
420
65535
  6
CONTINUOUS
370
0
390
F
  0
LAYER
  5
53
100
AcDbSymbolTableRecord
100
AcDbLayerTableRecord
  2
Layer 1 Text
 70
0
 62
4
420
65535
  6
CONTINUOUS
370
0
390
F
  0
LAYER
  5
54
100
AcDbSymbolTableRecord
100
AcDbLayerTableRecord
  2
Motor Gear Text
 70
0
 62
4
420
65535
  6
CONTINUOUS
370
0
390
F
  0
LAYER
  5
55
100
AcDbSymbolTableRecord
100
AcDbLayerTableRecord
  2
Rotor Gear Text
 70
0
 62
4
420
65535
  6
CONTINUOUS
370
0
390
F
  0
LAYER
  5
56
100
AcDbSymbolTableRecord
100
AcDbLayerTableRecord
  2
Rotor Plate Text
 70
0
 62
4
420
65535
  6
CONTINUOUS
370
0
390
F
  0
LAYER
  5
57
100
AcDbSymbolTableRecord
100
AcDbLayerTableRecord
  2
Layer 5
 70
0
 62
7
420
16777215
  6
CONTINUOUS
370
0
390
F
  0
LAYER
  5
58
100
AcDbSymbolTableRecord
100
AcDbLayerTableRecord
  2
Layer 5 Text
 70
0
 62
4
420
65535
  6
CONTINUOUS
370
0
390
F
  0
LAYER
  5
59
100
AcDbSymbolTableRecord
100
AcDbLayerTableRecord
  2
Drive Retainer
 70
0
 62
7
420
0
  6
CONTINUOUS
370
0
390
F
  0
LAYER
  5
5A
100
AcDbSymbolTableRecord
100
AcDbLayerTableRecord
  2
Drive Retainer Text
 70
0
 62
4
420
65535
  6
CONTINUOUS
370
0
390
F
  0
LAYER
  5
5B
100
AcDbSymbolTableRecord
100
AcDbLayerTableRecord
  2
Rotor Plate 2
 70
0
 62
7
420
0
  6
CONTINUOUS
370
0
390
F
  0
LAYER
  5
5C
100
AcDbSymbolTableRecord
100
AcDbLayerTableRecord
  2
Rotor Plate 2 Text
 70
0
 62
4
420
65535
  6
CONTINUOUS
370
0
390
F
  0
LAYER
  5
5D
100
AcDbSymbolTableRecord
100
AcDbLayerTableRecord
  2
Rotor Gear 1:1
 70
0
 62
7
420
0
  6
CONTINUOUS
370
0
390
F
  0
LAYER
  5
5E
100
AcDbSymbolTableRecord
100
AcDbLayerTableRecord
  2
Rotor Gear 1:1 Text
 70
0
 62
4
420
65535
  6
CONTINUOUS
370
0
390
F
  0
LAYER
  5
5F
100
AcDbSymbolTableRecord
100
AcDbLayerTableRecord
  2
Drawings
 70
0
 62
5
420
255
  6
CONTINUOUS
370
0
390
F
  0
LAYER
  5
60
100
AcDbSymbolTableRecord
100
AcDbLayerTableRecord
  2
Motor Gear 1:1
 70
0
 62
7
420
0
  6
CONTINUOUS
370
0
390
F
  0
LAYER
  5
61
100
AcDbSymbolTableRecord
100
AcDbLayerTableRecord
  2
Motor Gear 1:1 Text
 70
0
 62
4
420
65535
  6
CONTINUOUS
370
0
390
F
  0
ENDTAB
  0
TABLE
  2
STYLE
  5
3
100
AcDbSymbolTable
 70
1
  0
STYLE
  5
11
100
AcDbSymbolTableRecord
100
AcDbTextStyleTableRecord
  2
Standard
 70
0
 40
0.0
 41
0.75
 50
0.0
 71
0
 42
2.5
  3
txt
  4

  0
ENDTAB
  0
TABLE
  2
VIEW
  5
6
100
AcDbSymbolTable
 70
0
  0
ENDTAB
  0
TABLE
  2
UCS
  5
7
100
AcDbSymbolTable
 70
0
  0
ENDTAB
  0
TABLE
  2
APPID
  5
9
100
AcDbSymbolTable
 70
1
  0
APPID
  5
12
100
AcDbSymbolTableRecord
100
AcDbRegAppTableRecord
  2
ACAD
 70
0
  0
ENDTAB
  0
TABLE
  2
DIMSTYLE
  5
A
100
AcDbSymbolTable
 70
1
100
AcDbDimStyleTable
 71
0
  0
DIMSTYLE
105
27
100
AcDbSymbolTableRecord
100
AcDbDimStyleTableRecord
  2
Standard
 41
2.5
 42
0.625
 43
3.75
 44
1.25
 70
0
 73
0
 74
0
 77
1
 78
8
140
2.5
141
2.5
143
0.03937007874016
147
0.625
171
3
172
1
271
2
272
2
274
3
278
44
283
0
284
8
340
11
  0
ENDTAB
  0
TABLE
  2
BLOCK_RECORD
  5
1
100
AcDbSymbolTable
 70
1
  0
BLOCK_RECORD
  5
1F
100
AcDbSymbolTableRecord
100
AcDbBlockTableRecord
  2
*Model_Space
340
22
  0
BLOCK_RECORD
  5
1B
100
AcDbSymbolTableRecord
100
AcDbBlockTableRecord
  2
*Paper_Space
340
1E
  0
BLOCK_RECORD
  5
23
100
AcDbSymbolTableRecord
100
AcDbBlockTableRecord
  2
*Paper_Space0
340
26
  0
ENDTAB
  0
ENDSEC
  0
SECTION
  2
BLOCKS
  0
BLOCK
  5
20
100
AcDbEntity
  8
0
100
AcDbBlockBegin
  2
*Model_Space
 70
0
 10
0.0
 20
0.0
 30
0.0
  3
*Model_Space
  1

  0
ENDBLK
  5
21
100
AcDbEntity
  8
0
100
AcDbBlockEnd
  0
BLOCK
  5
1C
100
AcDbEntity
 67
1
  8
0
100
AcDbBlockBegin
  2
*Paper_Space
 70
0
 10
0.0
 20
0.0
 30
0.0
  3
*Paper_Space
  1

  0
ENDBLK
  5
1D
100
AcDbEntity
 67
1
  8
0
100
AcDbBlockEnd
  0
BLOCK
  5
24
100
AcDbEntity
  8
0
100
AcDbBlockBegin
  2
*Paper_Space0
 70
0
 10
0.0
 20
0.0
 30
0.0
  3
*Paper_Space0
  1

  0
ENDBLK
  5
25
100
AcDbEntity
  8
0
100
AcDbBlockEnd
  0
ENDSEC
  0
SECTION
  2
ENTITIES
  0
CIRCLE
  5
62
100
AcDbEntity
100
AcDbCircle
  8
Layer 7
 62
256
370
-1
  6
ByLayer
 10
69.4999850054044543
 20
91.4731265266271834
 30
0.0
 40
1.4299999999999999
  0
CIRCLE
  5
63
100
AcDbEntity
100
AcDbCircle
  8
Layer 7
 62
256
370
-1
  6
ByLayer
 10
69.4999850054044259
 20
73.8731265266271464
 30
0.0
 40
1.4299999999999999
  0
CIRCLE
  5
64
100
AcDbEntity
100
AcDbCircle
  8
Layer 7
 62
256
370
-1
  6
ByLayer
 10
69.4999850054044543
 20
91.4731265266271834
 30
0.0
 40
1.4299999999999999
  0
CIRCLE
  5
65
100
AcDbEntity
100
AcDbCircle
  8
Layer 7
 62
256
370
-1
  6
ByLayer
 10
69.4999850054044259
 20
73.8731265266271464
 30
0.0
 40
1.4299999999999999
  0
ARC
  5
66
100
AcDbEntity
  8
Layer 7
 62
256
370
-1
  6
ByLayer
100
AcDbCircle
 10
98.0
 20
98.0
 30
0.0
 40
2.0
100
AcDbArc
 50
0.0
 51
90.0
  0
LINE
  5
67
100
AcDbEntity
100
AcDbLine
  8
Layer 7
 62
256
370
-1
  6
ByLayer
 10
98.0
 20
100.0
 30
0.0
 11
2.0
 21
100.0
 31
0.0
  0
ARC
  5
68
100
AcDbEntity
  8
Layer 7
 62
256
370
-1
  6
ByLayer
100
AcDbCircle
 10
2.0
 20
98.0
 30
0.0
 40
2.0
100
AcDbArc
 50
90.0
 51
180.0
  0
LINE
  5
69
100
AcDbEntity
100
AcDbLine
  8
Layer 7
 62
256
370
-1
  6
ByLayer
 10
0.0
 20
98.0
 30
0.0
 11
0.0
 21
2.0
 31
0.0
  0
ARC
  5
6A
100
AcDbEntity
  8
Layer 7
 62
256
370
-1
  6
ByLayer
100
AcDbCircle
 10
2.0
 20
2.0
 30
0.0
 40
2.0
100
AcDbArc
 50
180.0
 51
270.0
  0
LINE
  5
6B
100
AcDbEntity
100
AcDbLine
  8
Layer 7
 62
256
370
-1
  6
ByLayer
 10
2.0
 20
0.0
 30
0.0
 11
98.0
 21
0.0
 31
0.0
  0
ARC
  5
6C
100
AcDbEntity
  8
Layer 7
 62
256
370
-1
  6
ByLayer
100
AcDbCircle
 10
98.0
 20
2.0
 30
0.0
 40
2.0
100
AcDbArc
 50
270.0
 51
0.0
  0
MTEXT
  5
6D
100
AcDbEntity
100
AcDbMText
  8
Layer 7 Text
 62
256
370
-1
  6
ByLayer
 10
10.0
 20
83.0
 30
0.0
 40
3.0
 41
100.0
 71
1
 72
2
  1
Layer\~7
  7
standard
 50
0.0
 73
1
 44
1.0
  0
CIRCLE
  5
6E
100
AcDbEntity
100
AcDbCircle
  8
Layer 7
 62
256
370
-1
  6
ByLayer
 10
92.5
 20
50.0
 30
0.0
 40
4.6200000000000001
  0
CIRCLE
  5
6F
100
AcDbEntity
100
AcDbCircle
  8
Layer 7
 62
256
370
-1
  6
ByLayer
 10
92.5
 20
7.4999999999999991
 30
0.0
 40
4.6200000000000001
  0
CIRCLE
  5
70
100
AcDbEntity
100
AcDbCircle
  8
Layer 7
 62
256
370
-1
  6
ByLayer
 10
7.4999999999999991
 20
7.5
 30
0.0
 40
4.6200000000000001
  0
CIRCLE
  5
71
100
AcDbEntity
100
AcDbCircle
  8
Layer 7
 62
256
370
-1
  6
ByLayer
 10
7.5
 20
50.0
 30
0.0
 40
4.6200000000000001
  0
CIRCLE
  5
72
100
AcDbEntity
100
AcDbCircle
  8
Layer 7
 62
256
370
-1
  6
ByLayer
 10
7.5
 20
92.5
 30
0.0
 40
4.6200000000000001
  0
CIRCLE
  5
73
100
AcDbEntity
100
AcDbCircle
  8
Layer 7
 62
256
370
-1
  6
ByLayer
 10
31.5
 20
3.9999999999999929
 30
0.0
 40
3.1800000000000002
  0
CIRCLE
  5
74
100
AcDbEntity
100
AcDbCircle
  8
Layer 7
 62
256
370
-1
  6
ByLayer
 10
68.5
 20
4.0
 30
0.0
 40
3.1800000000000002
  0
ARC
  5
75
100
AcDbEntity
  8
Layer 1
 62
256
370
-1
  6
ByLayer
100
AcDbCircle
 10
30.5
 20
270.5
 30
0.0
 40
0.5
100
AcDbArc
 50
180.0
 51
270.0
  0
LINE
  5
76
100
AcDbEntity
100
AcDbLine
  8
Layer 1
 62
256
370
-1
  6
ByLayer
 10
30.0
 20
299.5
 30
0.0
 11
30.0
 21
270.5
 31
0.0
  0
ARC
  5
77
100
AcDbEntity
  8
Layer 1
 62
256
370
-1
  6
ByLayer
100
AcDbCircle
 10
29.5
 20
299.5
 30
0.0
 40
0.5
100
AcDbArc
 50
0.0
 51
90.0
  0
LINE
  5
78
100
AcDbEntity
100
AcDbLine
  8
Layer 1
 62
256
370
-1
  6
ByLayer
 10
99.5
 20
270.0
 30
0.0
 11
30.5
 21
270.0
 31
0.0
  0
ARC
  5
79
100
AcDbEntity
  8
Layer 1
 62
256
370
-1
  6
ByLayer
100
AcDbCircle
 10
99.5
 20
269.5
 30
0.0
 40
0.5
100
AcDbArc
 50
0.0
 51
90.0
  0
LINE
  5
7A
100
AcDbEntity
100
AcDbLine
  8
Layer 1
 62
256
370
-1
  6
ByLayer
 10
29.5
 20
300.0
 30
0.0
 11
2.0
 21
300.0
 31
0.0
  0
ARC
  5
7B
100
AcDbEntity
  8
Layer 1
 62
256
370
-1
  6
ByLayer
100
AcDbCircle
 10
2.0
 20
298.0
 30
0.0
 40
2.0
100
AcDbArc
 50
90.0
 51
180.0
  0
LINE
  5
7C
100
AcDbEntity
100
AcDbLine
  8
Layer 1
 62
256
370
-1
  6
ByLayer
 10
0.0
 20
298.0
 30
0.0
 11
0.0
 21
202.0
 31
0.0
  0
ARC
  5
7D
100
AcDbEntity
  8
Layer 1
 62
256
370
-1
  6
ByLayer
100
AcDbCircle
 10
2.0
 20
202.0
 30
0.0
 40
2.0
100
AcDbArc
 50
180.0
 51
270.0
  0
ARC
  5
7E
100
AcDbEntity
  8
Layer 1
 62
256
370
-1
  6
ByLayer
100
AcDbCircle
 10
98.0
 20
202.0
 30
0.0
 40
2.0
100
AcDbArc
 50
270.0
 51
0.0
  0
MTEXT
  5
7F
100
AcDbEntity
100
AcDbMText
  8
Layer 1 Text
 62
256
370
-1
  6
ByLayer
 10
10.0
 20
283.0
 30
0.0
 40
3.0
 41
100.0
 71
1
 72
2
  1
Layer\~1
  7
standard
 50
0.0
 73
1
 44
1.0
  0
CIRCLE
  5
80
100
AcDbEntity
100
AcDbCircle
  8
Layer 1
 62
256
370
-1
  6
ByLayer
 10
49.9999850054043975
 20
234.7798160249545276
 30
0.0
 40
10.9000000000000004
  0
CIRCLE
  5
81
100
AcDbEntity
100
AcDbCircle
  8
Layer 1
 62
256
370
-1
  6
ByLayer
 10
7.5
 20
292.5
 30
0.0
 40
2.3999999999999999
  0
CIRCLE
  5
82
100
AcDbEntity
100
AcDbCircle
  8
Layer 1
 62
256
370
-1
  6
ByLayer
 10
7.5
 20
250.0
 30
0.0
 40
2.3999999999999999
  0
CIRCLE
  5
83
100
AcDbEntity
100
AcDbCircle
  8
Layer 1
 62
256
370
-1
  6
ByLayer
 10
7.5
 20
207.5
 30
0.0
 40
2.3999999999999999
  0
CIRCLE
  5
84
100
AcDbEntity
100
AcDbCircle
  8
Layer 1
 62
256
370
-1
  6
ByLayer
 10
92.5
 20
207.5
 30
0.0
 40
2.3999999999999999
  0
CIRCLE
  5
85
100
AcDbEntity
100
AcDbCircle
  8
Layer 1
 62
256
370
-1
  6
ByLayer
 10
92.5
 20
250.0
 30
0.0
 40
2.3999999999999999
  0
CIRCLE
  5
86
100
AcDbEntity
100
AcDbCircle
  8
Layer 1
 62
256
370
-1
  6
ByLayer
 10
49.9999850054043975
 20
254.7798160249545276
 30
0.0
 40
1.4299999999999999
  0
CIRCLE
  5
87
100
AcDbEntity
100
AcDbCircle
  8
Layer 1
 62
256
370
-1
  6
ByLayer
 10
32.6794769297156193
 20
224.7798160249545276
 30
0.0
 40
1.4299999999999999
  0
CIRCLE
  5
88
100
AcDbEntity
100
AcDbCircle
  8
Layer 1
 62
256
370
-1
  6
ByLayer
 10
67.3204930810931614
 20
224.7798160249545276
 30
0.0
 40
1.4299999999999999
  0
CIRCLE
  5
89
100
AcDbEntity
100
AcDbCircle
  8
Layer 1
 62
256
370
-1
  6
ByLayer
 10
31.5
 20
204.0
 30
0.0
 40
2.7999999999999998
  0
CIRCLE
  5
8A
100
AcDbEntity
100
AcDbCircle
  8
Layer 1
 62
256
370
-1
  6
ByLayer
 10
68.5
 20
204.0
 30
0.0
 40
2.7999999999999998
  0
MTEXT
  5
8B
100
AcDbEntity
100
AcDbMText
  8
Layer 1 Text
 62
256
370
-1
  6
ByLayer
 10
4.0
 20
277.0
 30
0.0
 40
3.0
 41
100.0
 71
1
 72
2
  1
Peristaltic
  7
standard
 50
0.0
 73
0
 44
1.0
  0
MTEXT
  5
8C
100
AcDbEntity
100
AcDbMText
  8
Layer 1 Text
 62
256
370
-1
  6
ByLayer
 10
4.0
 20
272.0
 30
0.0
 40
3.0
 41
100.0
 71
1
 72
2
  1
Pump\~v1.3
  7
standard
 50
0.0
 73
0
 44
1.0
  0
MTEXT
  5
8D
100
AcDbEntity
100
AcDbMText
  8
Layer 1 Text
 62
256
370
-1
  6
ByLayer
 10
4.0
 20
265.0
 30
0.0
 40
3.0
 41
100.0
 71
1
 72
2
  1
ZachHoeken.com
  7
standard
 50
0.0
 73
0
 44
1.0
  0
ARC
  5
8E
100
AcDbEntity
  8
Layer 2
 62
256
370
-1
  6
ByLayer
100
AcDbCircle
 10
130.5
 20
270.5
 30
0.0
 40
0.5
100
AcDbArc
 50
180.0
 51
270.0
  0
LINE
  5
8F
100
AcDbEntity
100
AcDbLine
  8
Layer 2
 62
256
370
-1
  6
ByLayer
 10
130.0
 20
299.5
 30
0.0
 11
130.0
 21
270.5
 31
0.0
  0
ARC
  5
90
100
AcDbEntity
  8
Layer 2
 62
256
370
-1
  6
ByLayer
100
AcDbCircle
 10
129.5
 20
299.5
 30
0.0
 40
0.5
100
AcDbArc
 50
0.0
 51
90.0
  0
LINE
  5
91
100
AcDbEntity
100
AcDbLine
  8
Layer 2
 62
256
370
-1
  6
ByLayer
 10
199.5
 20
270.0
 30
0.0
 11
130.5
 21
270.0
 31
0.0
  0
ARC
  5
92
100
AcDbEntity
  8
Layer 2
 62
256
370
-1
  6
ByLayer
100
AcDbCircle
 10
199.5
 20
269.5
 30
0.0
 40
0.5
100
AcDbArc
 50
0.0
 51
90.0
  0
ARC
  5
93
100
AcDbEntity
  8
Layer 2
 62
256
370
-1
  6
ByLayer
100
AcDbCircle
 10
198.0
 20
202.0
 30
0.0
 40
2.0
100
AcDbArc
 50
270.0
 51
360.0
  0
ARC
  5
94
100
AcDbEntity
  8
Layer 2
 62
256
370
-1
  6
ByLayer
100
AcDbCircle
 10
102.0
 20
202.0
 30
0.0
 40
2.0
100
AcDbArc
 50
180.0
 51
270.0
  0
LINE
  5
95
100
AcDbEntity
100
AcDbLine
  8
Layer 2
 62
256
370
-1
  6
ByLayer
 10
100.0
 20
298.0
 30
0.0
 11
100.0
 21
202.0
 31
0.0
  0
LINE
  5
96
100
AcDbEntity
100
AcDbLine
  8
Layer 2
 62
256
370
-1
  6
ByLayer
 10
129.5
 20
300.0
 30
0.0
 11
102.0
 21
300.0
 31
0.0
  0
ARC
  5
97
100
AcDbEntity
  8
Layer 2
 62
256
370
-1
  6
ByLayer
100
AcDbCircle
 10
102.0
 20
298.0
 30
0.0
 40
2.0
100
AcDbArc
 50
90.0
 51
180.0
  0
CIRCLE
  5
98
100
AcDbEntity
100
AcDbCircle
  8
Layer 2
 62
256
370
-1
  6
ByLayer
 10
149.9999850054043975
 20
234.7798160249545276
 30
0.0
 40
8.0
  0
MTEXT
  5
99
100
AcDbEntity
100
AcDbMText
  8
Layer 2 Text
 62
256
370
-1
  6
ByLayer
 10
110.0
 20
283.0
 30
0.0
 40
3.0
 41
100.0
 71
1
 72
2
  1
Layer\~2
  7
standard
 50
0.0
 73
1
 44
1.0
  0
CIRCLE
  5
9A
100
AcDbEntity
100
AcDbCircle
  8
Layer 2
 62
256
370
-1
  6
ByLayer
 10
192.5
 20
250.0
 30
0.0
 40
2.3999999999999999
  0
CIRCLE
  5
9B
100
AcDbEntity
100
AcDbCircle
  8
Layer 2
 62
256
370
-1
  6
ByLayer
 10
192.5
 20
207.5
 30
0.0
 40
2.3999999999999999
  0
CIRCLE
  5
9C
100
AcDbEntity
100
AcDbCircle
  8
Layer 2
 62
256
370
-1
  6
ByLayer
 10
107.5
 20
207.5
 30
0.0
 40
2.3999999999999999
  0
CIRCLE
  5
9D
100
AcDbEntity
100
AcDbCircle
  8
Layer 2
 62
256
370
-1
  6
ByLayer
 10
107.5
 20
250.0
 30
0.0
 40
2.3999999999999999
  0
CIRCLE
  5
9E
100
AcDbEntity
100
AcDbCircle
  8
Layer 2
 62
256
370
-1
  6
ByLayer
 10
107.5
 20
292.5
 30
0.0
 40
2.3999999999999999
  0
LINE
  5
9F
100
AcDbEntity
100
AcDbLine
  8
Layer 2
 62
256
370
-1
  6
ByLayer
 10
146.8245590054044101
 20
254.7798160249545276
 30
0.0
 11
148.4122720054043896
 21
257.5298160249545276
 31
0.0
  0
LINE
  5
A0
100
AcDbEntity
100
AcDbLine
  8
Layer 2
 62
256
370
-1
  6
ByLayer
 10
148.4122720054043896
 20
257.5298160249545276
 30
0.0
 11
151.5876980054044054
 21
257.5298160249545276
 31
0.0
  0
LINE
  5
A1
100
AcDbEntity
100
AcDbLine
  8
Layer 2
 62
256
370
-1
  6
ByLayer
 10
151.5876980054044054
 20
257.5298160249545276
 30
0.0
 11
153.1754110054043849
 21
254.7798160249545276
 31
0.0
  0
LINE
  5
A2
100
AcDbEntity
100
AcDbLine
  8
Layer 2
 62
256
370
-1
  6
ByLayer
 10
151.587698005404377
 20
252.0298160249545276
 30
0.0
 11
153.1754110054043849
 21
254.7798160249545276
 31
0.0
  0
LINE
  5
A3
100
AcDbEntity
100
AcDbLine
  8
Layer 2
 62
256
370
-1
  6
ByLayer
 10
148.4122720054043896
 20
252.0298160249545276
 30
0.0
 11
151.587698005404377
 21
252.0298160249545276
 31
0.0
  0
LINE
  5
A4
100
AcDbEntity
100
AcDbLine
  8
Layer 2
 62
256
370
-1
  6
ByLayer
 10
146.8245590054044101
 20
254.7798160249545276
 30
0.0
 11
148.4122720054043896
 21
252.0298160249545276
 31
0.0
  0
LINE
  5
A5
100
AcDbEntity
100
AcDbLine
  8
Layer 2
 62
256
370
-1
  6
ByLayer
 10
164.145067081093174
 20
224.7798160249545276
 30
0.0
 11
165.7327800810931535
 21
227.5298160249545276
 31
0.0
  0
LINE
  5
A6
100
AcDbEntity
100
AcDbLine
  8
Layer 2
 62
256
370
-1
  6
ByLayer
 10
165.7327800810931535
 20
227.5298160249545276
 30
0.0
 11
168.9082060810931694
 21
227.5298160249545276
 31
0.0
  0
LINE
  5
A7
100
AcDbEntity
100
AcDbLine
  8
Layer 2
 62
256
370
-1
  6
ByLayer
 10
168.9082060810931694
 20
227.5298160249545276
 30
0.0
 11
170.4959190810931489
 21
224.7798160249545276
 31
0.0
  0
LINE
  5
A8
100
AcDbEntity
100
AcDbLine
  8
Layer 2
 62
256
370
-1
  6
ByLayer
 10
168.9082060810931409
 20
222.0298160249545276
 30
0.0
 11
170.4959190810931489
 21
224.7798160249545276
 31
0.0
  0
LINE
  5
A9
100
AcDbEntity
100
AcDbLine
  8
Layer 2
 62
256
370
-1
  6
ByLayer
 10
165.7327800810931535
 20
222.0298160249545276
 30
0.0
 11
168.9082060810931409
 21
222.0298160249545276
 31
0.0
  0
LINE
  5
AA
100
AcDbEntity
100
AcDbLine
  8
Layer 2
 62
256
370
-1
  6
ByLayer
 10
164.145067081093174
 20
224.7798160249545276
 30
0.0
 11
165.7327800810931535
 21
222.0298160249545276
 31
0.0
  0
LINE
  5
AB
100
AcDbEntity
100
AcDbLine
  8
Layer 2
 62
256
370
-1
  6
ByLayer
 10
129.5040509297156177
 20
224.7798160249545276
 30
0.0
 11
131.0917639297156256
 21
227.5298160249545276
 31
0.0
  0
LINE
  5
AC
100
AcDbEntity
100
AcDbLine
  8
Layer 2
 62
256
370
-1
  6
ByLayer
 10
131.0917639297156256
 20
227.5298160249545276
 30
0.0
 11
134.2671899297156415
 21
227.5298160249545276
 31
0.0
  0
LINE
  5
AD
100
AcDbEntity
100
AcDbLine
  8
Layer 2
 62
256
370
-1
  6
ByLayer
 10
134.2671899297156415
 20
227.5298160249545276
 30
0.0
 11
135.8549029297155926
 21
224.7798160249545276
 31
0.0
  0
LINE
  5
AE
100
AcDbEntity
100
AcDbLine
  8
Layer 2
 62
256
370
-1
  6
ByLayer
 10
134.2671899297155846
 20
222.0298160249545276
 30
0.0
 11
135.8549029297155926
 21
224.7798160249545276
 31
0.0
  0
LINE
  5
AF
100
AcDbEntity
100
AcDbLine
  8
Layer 2
 62
256
370
-1
  6
ByLayer
 10
131.0917639297156256
 20
222.029816024954556
 30
0.0
 11
134.2671899297155846
 21
222.0298160249545276
 31
0.0
  0
LINE
  5
B0
100
AcDbEntity
100
AcDbLine
  8
Layer 2
 62
256
370
-1
  6
ByLayer
 10
129.5040509297156177
 20
224.7798160249545276
 30
0.0
 11
131.0917639297156256
 21
222.029816024954556
 31
0.0
  0
CIRCLE
  5
B1
100
AcDbEntity
100
AcDbCircle
  8
Layer 2
 62
256
370
-1
  6
ByLayer
 10
131.5
 20
204.0
 30
0.0
 40
2.7999999999999998
  0
CIRCLE
  5
B2
100
AcDbEntity
100
AcDbCircle
  8
Layer 2
 62
256
370
-1
  6
ByLayer
 10
168.5
 20
204.0
 30
0.0
 40
2.7999999999999998
  0
CIRCLE
  5
B3
100
AcDbEntity
100
AcDbCircle
  8
Layer 3
 62
256
370
-1
  6
ByLayer
 10
249.9999850054043975
 20
282.6731265266270725
 30
0.0
 40
4.8250000000000002
  0
CIRCLE
  5
B4
100
AcDbEntity
100
AcDbCircle
  8
Layer 3
 62
256
370
-1
  6
ByLayer
 10
269.4999850054044828
 20
291.4731265266271976
 30
0.0
 40
1.4299999999999999
  0
CIRCLE
  5
B5
100
AcDbEntity
100
AcDbCircle
  8
Layer 3
 62
256
370
-1
  6
ByLayer
 10
269.4999850054044259
 20
273.8731265266271748
 30
0.0
 40
1.4299999999999999
  0
ARC
  5
B6
100
AcDbEntity
  8
Layer 3
 62
256
370
-1
  6
ByLayer
100
AcDbCircle
 10
202.0
 20
298.0
 30
0.0
 40
2.0
100
AcDbArc
 50
90.0
 51
180.0
  0
ARC
  5
B7
100
AcDbEntity
  8
Layer 3
 62
256
370
-1
  6
ByLayer
100
AcDbCircle
 10
298.0
 20
202.0
 30
0.0
 40
2.0
100
AcDbArc
 50
270.0
 51
0.0
  0
LINE
  5
B8
100
AcDbEntity
100
AcDbLine
  8
Layer 3
 62
256
370
-1
  6
ByLayer
 10
200.0
 20
298.0
 30
0.0
 11
200.0
 21
202.0
 31
0.0
  0
ARC
  5
B9
100
AcDbEntity
  8
Layer 3
 62
256
370
-1
  6
ByLayer
100
AcDbCircle
 10
202.0
 20
202.0
 30
0.0
 40
2.0
100
AcDbArc
 50
180.0
 51
270.0
  0
LINE
  5
BA
100
AcDbEntity
100
AcDbLine
  8
Layer 3
 62
256
370
-1
  6
ByLayer
 10
274.7999850054043804
 20
271.5731265266270498
 30
0.0
 11
274.7999850054043804
 21
298.0
 31
0.0
  0
LINE
  5
BB
100
AcDbEntity
100
AcDbLine
  8
Layer 3
 62
256
370
-1
  6
ByLayer
 10
272.7999850054043804
 20
300.0
 30
0.0
 11
202.0
 21
300.0
 31
0.0
  0
ARC
  5
BC
100
AcDbEntity
  8
Layer 3
 62
256
370
-1
  6
ByLayer
100
AcDbCircle
 10
272.7999850054043804
 20
298.0
 30
0.0
 40
2.0
100
AcDbArc
 50
0.0
 51
90.0
  0
LINE
  5
BD
100
AcDbEntity
100
AcDbLine
  8
Layer 3
 62
256
370
-1
  6
ByLayer
 10
274.7999850054043804
 20
271.5731265266270498
 30
0.0
 11
298.0
 21
271.5731265266271066
 31
0.0
  0
LINE
  5
BE
100
AcDbEntity
100
AcDbLine
  8
Layer 3
 62
256
370
-1
  6
ByLayer
 10
300.0
 20
202.0
 30
0.0
 11
300.0
 21
269.5731265266271066
 31
0.0
  0
ARC
  5
BF
100
AcDbEntity
  8
Layer 3
 62
256
370
-1
  6
ByLayer
100
AcDbCircle
 10
298.0
 20
269.5731265266271066
 30
0.0
 40
2.0
100
AcDbArc
 50
0.0
 51
90.0
  0
MTEXT
  5
C0
100
AcDbEntity
100
AcDbMText
  8
Layer 3 Text
 62
256
370
-1
  6
ByLayer
 10
210.0
 20
283.0
 30
0.0
 40
3.0
 41
100.0
 71
1
 72
2
  1
Layer\~3
  7
standard
 50
0.0
 73
1
 44
1.0
  0
CIRCLE
  5
C1
100
AcDbEntity
100
AcDbCircle
  8
Layer 3
 62
256
370
-1
  6
ByLayer
 10
249.9999850054043975
 20
234.7798160249545276
 30
0.0
 40
28.0
  0
CIRCLE
  5
C2
100
AcDbEntity
100
AcDbCircle
  8
Layer 3
 62
256
370
-1
  6
ByLayer
 10
292.5
 20
250.0
 30
0.0
 40
2.3999999999999999
  0
CIRCLE
  5
C3
100
AcDbEntity
100
AcDbCircle
  8
Layer 3
 62
256
370
-1
  6
ByLayer
 10
292.5
 20
207.5
 30
0.0
 40
2.3999999999999999
  0
CIRCLE
  5
C4
100
AcDbEntity
100
AcDbCircle
  8
Layer 3
 62
256
370
-1
  6
ByLayer
 10
207.5
 20
207.5
 30
0.0
 40
2.3999999999999999
  0
CIRCLE
  5
C5
100
AcDbEntity
100
AcDbCircle
  8
Layer 3
 62
256
370
-1
  6
ByLayer
 10
207.5
 20
250.0
 30
0.0
 40
2.3999999999999999
  0
CIRCLE
  5
C6
100
AcDbEntity
100
AcDbCircle
  8
Layer 3
 62
256
370
-1
  6
ByLayer
 10
207.5
 20
292.5
 30
0.0
 40
2.3999999999999999
  0
CIRCLE
  5
C7
100
AcDbEntity
100
AcDbCircle
  8
Layer 3
 62
256
370
-1
  6
ByLayer
 10
231.5
 20
204.0
 30
0.0
 40
1.4299999999999999
  0
CIRCLE
  5
C8
100
AcDbEntity
100
AcDbCircle
  8
Layer 3
 62
256
370
-1
  6
ByLayer
 10
268.5
 20
204.0
 30
0.0
 40
1.4299999999999999
  0
CIRCLE
  5
C9
100
AcDbEntity
100
AcDbCircle
  8
Layer 5
 62
256
370
-1
  6
ByLayer
 10
149.9999850054043975
 20
182.6731265266270725
 30
0.0
 40
4.8250000000000002
  0
CIRCLE
  5
CA
100
AcDbEntity
100
AcDbCircle
  8
Layer 5
 62
256
370
-1
  6
ByLayer
 10
169.4999850054044828
 20
191.4731265266272544
 30
0.0
 40
1.4299999999999999
  0
CIRCLE
  5
CB
100
AcDbEntity
100
AcDbCircle
  8
Layer 5
 62
256
370
-1
  6
ByLayer
 10
169.4999850054044259
 20
173.873126526627118
 30
0.0
 40
1.4299999999999999
  0
ARC
  5
CC
100
AcDbEntity
  8
Layer 5
 62
256
370
-1
  6
ByLayer
100
AcDbCircle
 10
198.0
 20
101.9999999999999716
 30
0.0
 40
2.0
100
AcDbArc
 50
270.0
 51
0.0
  0
LINE
  5
CD
100
AcDbEntity
100
AcDbLine
  8
Layer 5
 62
256
370
-1
  6
ByLayer
 10
199.9999999999999432
 20
101.9999999999999432
 30
0.0
 11
200.0
 21
198.0000000000004263
 31
0.0
  0
ARC
  5
CE
100
AcDbEntity
  8
Layer 5
 62
256
370
-1
  6
ByLayer
100
AcDbCircle
 10
198.0
 20
198.0000000000004263
 30
0.0
 40
2.0
100
AcDbArc
 50
0.0
 51
90.0
  0
LINE
  5
CF
100
AcDbEntity
100
AcDbLine
  8
Layer 5
 62
256
370
-1
  6
ByLayer
 10
198.0
 20
200.0
 30
0.0
 11
102.0
 21
200.0
 31
0.0
  0
ARC
  5
D0
100
AcDbEntity
  8
Layer 5
 62
256
370
-1
  6
ByLayer
100
AcDbCircle
 10
102.0
 20
198.0
 30
0.0
 40
2.0
100
AcDbArc
 50
90.0
 51
180.0
  0
LINE
  5
D1
100
AcDbEntity
100
AcDbLine
  8
Layer 5
 62
256
370
-1
  6
ByLayer
 10
100.0
 20
198.0
 30
0.0
 11
99.9999999999999716
 21
101.9999999999999716
 31
0.0
  0
ARC
  5
D2
100
AcDbEntity
  8
Layer 5
 62
256
370
-1
  6
ByLayer
100
AcDbCircle
 10
101.9999999999999716
 20
101.9999999999999858
 30
0.0
 40
2.0
100
AcDbArc
 50
180.0
 51
270.0
  0
MTEXT
  5
D3
100
AcDbEntity
100
AcDbMText
  8
Layer 5 Text
 62
256
370
-1
  6
ByLayer
 10
110.0
 20
183.0
 30
0.0
 40
3.0
 41
100.0
 71
1
 72
2
  1
Layer\~5
  7
standard
 50
0.0
 73
1
 44
1.0
  0
CIRCLE
  5
D4
100
AcDbEntity
100
AcDbCircle
  8
Layer 5
 62
256
370
-1
  6
ByLayer
 10
107.5
 20
192.5
 30
0.0
 40
2.3999999999999999
  0
CIRCLE
  5
D5
100
AcDbEntity
100
AcDbCircle
  8
Layer 5
 62
256
370
-1
  6
ByLayer
 10
107.4999999999999716
 20
150.0
 30
0.0
 40
2.3999999999999999
  0
CIRCLE
  5
D6
100
AcDbEntity
100
AcDbCircle
  8
Layer 5
 62
256
370
-1
  6
ByLayer
 10
107.4999999999999432
 20
107.4999999999999858
 30
0.0
 40
2.3999999999999999
  0
CIRCLE
  5
D7
100
AcDbEntity
100
AcDbCircle
  8
Layer 5
 62
256
370
-1
  6
ByLayer
 10
192.5
 20
107.4999999999999716
 30
0.0
 40
2.3999999999999999
  0
CIRCLE
  5
D8
100
AcDbEntity
100
AcDbCircle
  8
Layer 5
 62
256
370
-1
  6
ByLayer
 10
192.5
 20
149.9999999999999432
 30
0.0
 40
2.3999999999999999
  0
MTEXT
  5
D9
100
AcDbEntity
100
AcDbMText
  8
Layer 5 Text
 62
256
370
-1
  6
ByLayer
 10
150.0
 20
102.0
 30
0.0
 40
2.0
 41
100.0
 71
5
 72
2
  1
Layer\~5
  7
standard
 50
0.0
 73
1
 44
1.0
  0
ARC
  5
DA
100
AcDbEntity
  8
Layer 5
 62
256
370
-1
  6
ByLayer
100
AcDbCircle
 10
149.9999850054043975
 20
134.7798160249545276
 30
0.0
 40
32.5
100
AcDbArc
 50
0.0
 51
180.0
  0
LINE
  5
DB
100
AcDbEntity
100
AcDbLine
  8
Layer 5
 62
256
370
-1
  6
ByLayer
 10
126.9997196385934615
 20
113.9954999896293089
 30
0.0
 11
126.9997196385934473
 21
99.9999999999999858
 31
0.0
  0
LINE
  5
DC
100
AcDbEntity
100
AcDbLine
  8
Layer 5
 62
256
370
-1
  6
ByLayer
 10
117.4999850054043975
 20
134.7798160249545276
 30
0.0
 11
117.4999850054043975
 21
100.0
 31
0.0
  0
LINE
  5
DD
100
AcDbEntity
100
AcDbLine
  8
Layer 5
 62
256
370
-1
  6
ByLayer
 10
172.9999850054043975
 20
113.9952063341279995
 30
0.0
 11
172.9999850054043975
 21
100.0
 31
0.0
  0
ARC
  5
DE
100
AcDbEntity
  8
Layer 5
 62
256
370
-1
  6
ByLayer
100
AcDbCircle
 10
149.9999850054043975
 20
134.7798160249545276
 30
0.0
 40
31.0
100
AcDbArc
 50
222.1027173436243629
 51
317.8965511292541919
  0
LINE
  5
DF
100
AcDbEntity
100
AcDbLine
  8
Layer 5
 62
256
370
-1
  6
ByLayer
 10
182.4999850054043975
 20
134.7798160249545276
 30
0.0
 11
182.4997196385934615
 21
100.0
 31
0.0
  0
CIRCLE
  5
E0
100
AcDbEntity
100
AcDbCircle
  8
Layer 5
 62
256
370
-1
  6
ByLayer
 10
131.5
 20
104.0
 30
0.0
 40
1.4299999999999999
  0
CIRCLE
  5
E1
100
AcDbEntity
100
AcDbCircle
  8
Layer 5
 62
256
370
-1
  6
ByLayer
 10
168.5
 20
104.0
 30
0.0
 40
1.4299999999999999
  0
ARC
  5
E2
100
AcDbEntity
  8
Layer 6
 62
256
370
-1
  6
ByLayer
100
AcDbCircle
 10
298.0
 20
198.0
 30
0.0
 40
2.0
100
AcDbArc
 50
0.0
 51
90.0
  0
LINE
  5
E3
100
AcDbEntity
100
AcDbLine
  8
Layer 6
 62
256
370
-1
  6
ByLayer
 10
298.0
 20
200.0
 30
0.0
 11
202.0
 21
200.0
 31
0.0
  0
ARC
  5
E4
100
AcDbEntity
  8
Layer 6
 62
256
370
-1
  6
ByLayer
100
AcDbCircle
 10
202.0
 20
198.0
 30
0.0
 40
2.0
100
AcDbArc
 50
90.0
 51
180.0
  0
ARC
  5
E5
100
AcDbEntity
  8
Layer 6
 62
256
370
-1
  6
ByLayer
100
AcDbCircle
 10
202.0
 20
102.0
 30
0.0
 40
2.0
100
AcDbArc
 50
180.0
 51
270.0
  0
LINE
  5
E6
100
AcDbEntity
100
AcDbLine
  8
Layer 6
 62
256
370
-1
  6
ByLayer
 10
300.0
 20
102.0
 30
0.0
 11
300.0
 21
198.0
 31
0.0
  0
ARC
  5
E7
100
AcDbEntity
  8
Layer 6
 62
256
370
-1
  6
ByLayer
100
AcDbCircle
 10
298.0
 20
102.0
 30
0.0
 40
2.0
100
AcDbArc
 50
270.0
 51
0.0
  0
MTEXT
  5
E8
100
AcDbEntity
100
AcDbMText
  8
Layer 6 Text
 62
256
370
-1
  6
ByLayer
 10
210.0
 20
183.0
 30
0.0
 40
3.0
 41
100.0
 71
1
 72
2
  1
Layer\~6
  7
standard
 50
0.0
 73
1
 44
1.0
  0
CIRCLE
  5
E9
100
AcDbEntity
100
AcDbCircle
  8
Layer 6
 62
256
370
-1
  6
ByLayer
 10
269.4999850054044828
 20
191.4731265266271976
 30
0.0
 40
1.4299999999999999
  0
CIRCLE
  5
EA
100
AcDbEntity
100
AcDbCircle
  8
Layer 6
 62
256
370
-1
  6
ByLayer
 10
269.4999850054044259
 20
173.8731265266271464
 30
0.0
 40
1.4299999999999999
  0
CIRCLE
  5
EB
100
AcDbEntity
100
AcDbCircle
  8
Layer 6
 62
256
370
-1
  6
ByLayer
 10
207.5
 20
192.5
 30
0.0
 40
2.3999999999999999
  0
CIRCLE
  5
EC
100
AcDbEntity
100
AcDbCircle
  8
Layer 6
 62
256
370
-1
  6
ByLayer
 10
207.5
 20
150.0
 30
0.0
 40
2.3999999999999999
  0
CIRCLE
  5
ED
100
AcDbEntity
100
AcDbCircle
  8
Layer 6
 62
256
370
-1
  6
ByLayer
 10
207.5
 20
107.5
 30
0.0
 40
2.3999999999999999
  0
CIRCLE
  5
EE
100
AcDbEntity
100
AcDbCircle
  8
Layer 6
 62
256
370
-1
  6
ByLayer
 10
292.5
 20
107.5
 30
0.0
 40
2.3999999999999999
  0
CIRCLE
  5
EF
100
AcDbEntity
100
AcDbCircle
  8
Layer 6
 62
256
370
-1
  6
ByLayer
 10
292.5
 20
150.0
 30
0.0
 40
2.3999999999999999
  0
MTEXT
  5
F0
100
AcDbEntity
100
AcDbMText
  8
Layer 6 Text
 62
256
370
-1
  6
ByLayer
 10
250.0
 20
102.0
 30
0.0
 40
2.0
 41
100.0
 71
5
 72
2
  1
Layer\~6
  7
standard
 50
0.0
 73
1
 44
1.0
  0
ARC
  5
F1
100
AcDbEntity
  8
Layer 6
 62
256
370
-1
  6
ByLayer
100
AcDbCircle
 10
249.9999850054043975
 20
134.7798160249545276
 30
0.0
 40
32.5
100
AcDbArc
 50
0.0
 51
180.0
  0
ARC
  5
F2
100
AcDbEntity
  8
Layer 6
 62
256
370
-1
  6
ByLayer
100
AcDbCircle
 10
249.9999850054043975
 20
134.7798160249545276
 30
0.0
 40
31.0
100
AcDbArc
 50
222.1027173436243629
 51
316.5359765016618212
  0
LINE
  5
F3
100
AcDbEntity
100
AcDbLine
  8
Layer 6
 62
256
370
-1
  6
ByLayer
 10
226.9997196385934615
 20
113.9954999896293089
 30
0.0
 11
226.9997196385934615
 21
99.9999999999999858
 31
0.0
  0
LINE
  5
F4
100
AcDbEntity
100
AcDbLine
  8
Layer 6
 62
256
370
-1
  6
ByLayer
 10
272.9999850054043691
 20
113.4549479128183975
 30
0.0
 11
272.9999850054043691
 21
100.0
 31
0.0
  0
LINE
  5
F5
100
AcDbEntity
100
AcDbLine
  8
Layer 6
 62
256
370
-1
  6
ByLayer
 10
226.9997196385934615
 20
99.9999999999999858
 30
0.0
 11
272.9999850054043691
 21
100.0
 31
0.0
  0
LINE
  5
F6
100
AcDbEntity
100
AcDbLine
  8
Layer 6
 62
256
370
-1
  6
ByLayer
 10
282.499719638593433
 20
100.0
 30
0.0
 11
298.0
 21
100.0
 31
0.0
  0
LINE
  5
F7
100
AcDbEntity
100
AcDbLine
  8
Layer 6
 62
256
370
-1
  6
ByLayer
 10
282.4999850054043691
 20
134.7798160249545276
 30
0.0
 11
282.499719638593433
 21
100.0
 31
0.0
  0
LINE
  5
F8
100
AcDbEntity
100
AcDbLine
  8
Layer 6
 62
256
370
-1
  6
ByLayer
 10
217.4999850054043975
 20
134.7798160249545276
 30
0.0
 11
217.4999850054043975
 21
100.0000000000000142
 31
0.0
  0
LINE
  5
F9
100
AcDbEntity
100
AcDbLine
  8
Layer 6
 62
256
370
-1
  6
ByLayer
 10
202.0
 20
100.0
 30
0.0
 11
217.4999850054043975
 21
100.0000000000000142
 31
0.0
  0
CIRCLE
  5
FA
100
AcDbEntity
100
AcDbCircle
  8
Layer 6
 62
256
370
-1
  6
ByLayer
 10
231.5
 20
104.0
 30
0.0
 40
1.4299999999999999
  0
CIRCLE
  5
FB
100
AcDbEntity
100
AcDbCircle
  8
Layer 6
 62
256
370
-1
  6
ByLayer
 10
268.5
 20
104.0
 30
0.0
 40
1.4299999999999999
  0
ARC
  5
FC
100
AcDbEntity
  8
Layer 8
 62
256
370
-1
  6
ByLayer
100
AcDbCircle
 10
198.0
 20
98.0
 30
0.0
 40
2.0
100
AcDbArc
 50
0.0
 51
90.0
  0
LINE
  5
FD
100
AcDbEntity
100
AcDbLine
  8
Layer 8
 62
256
370
-1
  6
ByLayer
 10
200.0
 20
2.0
 30
0.0
 11
200.0
 21
98.0
 31
0.0
  0
ARC
  5
FE
100
AcDbEntity
  8
Layer 8
 62
256
370
-1
  6
ByLayer
100
AcDbCircle
 10
198.0
 20
2.0
 30
0.0
 40
2.0
100
AcDbArc
 50
270.0
 51
0.0
  0
LINE
  5
FF
100
AcDbEntity
100
AcDbLine
  8
Layer 8
 62
256
370
-1
  6
ByLayer
 10
102.0
 20
0.0
 30
0.0
 11
198.0
 21
0.0
 31
0.0
  0
ARC
  5
100
100
AcDbEntity
  8
Layer 8
 62
256
370
-1
  6
ByLayer
100
AcDbCircle
 10
102.0
 20
2.0
 30
0.0
 40
2.0
100
AcDbArc
 50
180.0
 51
270.0
  0
LINE
  5
101
100
AcDbEntity
100
AcDbLine
  8
Layer 8
 62
256
370
-1
  6
ByLayer
 10
100.0
 20
98.0
 30
0.0
 11
100.0
 21
2.0
 31
0.0
  0
LINE
  5
102
100
AcDbEntity
100
AcDbLine
  8
Layer 8
 62
256
370
-1
  6
ByLayer
 10
198.0
 20
100.0
 30
0.0
 11
102.0
 21
100.0
 31
0.0
  0
ARC
  5
103
100
AcDbEntity
  8
Layer 8
 62
256
370
-1
  6
ByLayer
100
AcDbCircle
 10
102.0
 20
98.0
 30
0.0
 40
2.0
100
AcDbArc
 50
90.0
 51
180.0
  0
MTEXT
  5
104
100
AcDbEntity
100
AcDbMText
  8
Layer 8 Text
 62
256
370
-1
  6
ByLayer
 10
110.0
 20
83.0
 30
0.0
 40
3.0
 41
100.0
 71
1
 72
2
  1
Layer\~8
  7
standard
 50
0.0
 73
1
 44
1.0
  0
CIRCLE
  5
105
100
AcDbEntity
100
AcDbCircle
  8
Layer 8
 62
256
370
-1
  6
ByLayer
 10
149.9999850054043975
 20
34.7798160249545276
 30
0.0
 40
10.9000000000000004
  0
CIRCLE
  5
106
100
AcDbEntity
100
AcDbCircle
  8
Layer 8
 62
256
370
-1
  6
ByLayer
 10
107.5
 20
92.5
 30
0.0
 40
2.3999999999999999
  0
CIRCLE
  5
107
100
AcDbEntity
100
AcDbCircle
  8
Layer 8
 62
256
370
-1
  6
ByLayer
 10
107.5
 20
50.0
 30
0.0
 40
2.3999999999999999
  0
CIRCLE
  5
108
100
AcDbEntity
100
AcDbCircle
  8
Layer 8
 62
256
370
-1
  6
ByLayer
 10
107.5
 20
7.5
 30
0.0
 40
2.3999999999999999
  0
CIRCLE
  5
109
100
AcDbEntity
100
AcDbCircle
  8
Layer 8
 62
256
370
-1
  6
ByLayer
 10
192.5
 20
7.5
 30
0.0
 40
2.3999999999999999
  0
CIRCLE
  5
10A
100
AcDbEntity
100
AcDbCircle
  8
Layer 8
 62
256
370
-1
  6
ByLayer
 10
192.5
 20
50.0
 30
0.0
 40
2.3999999999999999
  0
CIRCLE
  5
10B
100
AcDbEntity
100
AcDbCircle
  8
Layer 8
 62
256
370
-1
  6
ByLayer
 10
131.5
 20
3.9999999999999929
 30
0.0
 40
1.4299999999999999
  0
CIRCLE
  5
10C
100
AcDbEntity
100
AcDbCircle
  8
Layer 8
 62
256
370
-1
  6
ByLayer
 10
168.5
 20
4.0
 30
0.0
 40
1.4299999999999999
  0
CIRCLE
  5
10D
100
AcDbEntity
100
AcDbCircle
  8
Layer 4
 62
256
370
-1
  6
ByLayer
 10
49.9999850054043975
 20
182.6731265266270725
 30
0.0
 40
4.8250000000000002
  0
ARC
  5
10E
100
AcDbEntity
  8
Layer 4
 62
256
370
-1
  6
ByLayer
100
AcDbCircle
 10
98.0
 20
102.0
 30
0.0
 40
2.0
100
AcDbArc
 50
270.0
 51
0.0
  0
ARC
  5
10F
100
AcDbEntity
  8
Layer 4
 62
256
370
-1
  6
ByLayer
100
AcDbCircle
 10
98.0
 20
198.0
 30
0.0
 40
2.0
100
AcDbArc
 50
0.0
 51
90.0
  0
LINE
  5
110
100
AcDbEntity
100
AcDbLine
  8
Layer 4
 62
256
370
-1
  6
ByLayer
 10
98.0
 20
200.0
 30
0.0
 11
2.0
 21
200.0
 31
0.0
  0
ARC
  5
111
100
AcDbEntity
  8
Layer 4
 62
256
370
-1
  6
ByLayer
100
AcDbCircle
 10
2.0
 20
198.0
 30
0.0
 40
2.0
100
AcDbArc
 50
90.0
 51
180.0
  0
LINE
  5
112
100
AcDbEntity
100
AcDbLine
  8
Layer 4
 62
256
370
-1
  6
ByLayer
 10
0.0
 20
198.0
 30
0.0
 11
0.0
 21
101.9999999999999716
 31
0.0
  0
ARC
  5
113
100
AcDbEntity
  8
Layer 4
 62
256
370
-1
  6
ByLayer
100
AcDbCircle
 10
2.0
 20
101.9999999999999858
 30
0.0
 40
2.0
100
AcDbArc
 50
180.0
 51
270.0
  0
MTEXT
  5
114
100
AcDbEntity
100
AcDbMText
  8
Layer 4 Text
 62
256
370
-1
  6
ByLayer
 10
10.0
 20
183.0
 30
0.0
 40
3.0
 41
100.0
 71
1
 72
2
  1
Layer\~4
  7
standard
 50
0.0
 73
1
 44
1.0
  0
LINE
  5
115
100
AcDbEntity
100
AcDbLine
  8
Layer 4
 62
256
370
-1
  6
ByLayer
 10
66.3245590054045095
 20
191.4731265266272544
 30
0.0
 11
67.9122720054044891
 21
194.2231265266272544
 31
0.0
  0
LINE
  5
116
100
AcDbEntity
100
AcDbLine
  8
Layer 4
 62
256
370
-1
  6
ByLayer
 10
67.9122720054044891
 20
194.2231265266272544
 30
0.0
 11
71.0876980054045049
 21
194.2231265266272544
 31
0.0
  0
LINE
  5
117
100
AcDbEntity
100
AcDbLine
  8
Layer 4
 62
256
370
-1
  6
ByLayer
 10
71.0876980054045049
 20
194.2231265266272544
 30
0.0
 11
72.6754110054044844
 21
191.4731265266272544
 31
0.0
  0
LINE
  5
118
100
AcDbEntity
100
AcDbLine
  8
Layer 4
 62
256
370
-1
  6
ByLayer
 10
71.0876980054044765
 20
188.7231265266272544
 30
0.0
 11
72.6754110054044844
 21
191.4731265266272544
 31
0.0
  0
LINE
  5
119
100
AcDbEntity
100
AcDbLine
  8
Layer 4
 62
256
370
-1
  6
ByLayer
 10
67.9122720054044891
 20
188.7231265266272544
 30
0.0
 11
71.0876980054044765
 21
188.7231265266272544
 31
0.0
  0
LINE
  5
11A
100
AcDbEntity
100
AcDbLine
  8
Layer 4
 62
256
370
-1
  6
ByLayer
 10
66.3245590054045095
 20
191.4731265266272544
 30
0.0
 11
67.9122720054044891
 21
188.7231265266272544
 31
0.0
  0
LINE
  5
11B
100
AcDbEntity
100
AcDbLine
  8
Layer 4
 62
256
370
-1
  6
ByLayer
 10
66.3245590054044385
 20
173.873126526627118
 30
0.0
 11
67.912272005404418
 21
176.6231265266271464
 31
0.0
  0
LINE
  5
11C
100
AcDbEntity
100
AcDbLine
  8
Layer 4
 62
256
370
-1
  6
ByLayer
 10
67.912272005404418
 20
176.6231265266271464
 30
0.0
 11
71.0876980054044338
 21
176.6231265266271464
 31
0.0
  0
LINE
  5
11D
100
AcDbEntity
100
AcDbLine
  8
Layer 4
 62
256
370
-1
  6
ByLayer
 10
71.0876980054044338
 20
176.6231265266271464
 30
0.0
 11
72.6754110054044133
 21
173.873126526627118
 31
0.0
  0
LINE
  5
11E
100
AcDbEntity
100
AcDbLine
  8
Layer 4
 62
256
370
-1
  6
ByLayer
 10
71.0876980054044054
 20
171.1231265266271464
 30
0.0
 11
72.6754110054044133
 21
173.873126526627118
 31
0.0
  0
LINE
  5
11F
100
AcDbEntity
100
AcDbLine
  8
Layer 4
 62
256
370
-1
  6
ByLayer
 10
67.912272005404418
 20
171.1231265266271748
 30
0.0
 11
71.0876980054044054
 21
171.1231265266271464
 31
0.0
  0
LINE
  5
120
100
AcDbEntity
100
AcDbLine
  8
Layer 4
 62
256
370
-1
  6
ByLayer
 10
66.3245590054044385
 20
173.873126526627118
 30
0.0
 11
67.912272005404418
 21
171.1231265266271748
 31
0.0
  0
CIRCLE
  5
121
100
AcDbEntity
100
AcDbCircle
  8
Layer 4
 62
256
370
-1
  6
ByLayer
 10
7.5
 20
192.5
 30
0.0
 40
2.3999999999999999
  0
CIRCLE
  5
122
100
AcDbEntity
100
AcDbCircle
  8
Layer 4
 62
256
370
-1
  6
ByLayer
 10
7.5
 20
150.0
 30
0.0
 40
2.3999999999999999
  0
CIRCLE
  5
123
100
AcDbEntity
100
AcDbCircle
  8
Layer 4
 62
256
370
-1
  6
ByLayer
 10
7.5
 20
107.5
 30
0.0
 40
2.3999999999999999
  0
CIRCLE
  5
124
100
AcDbEntity
100
AcDbCircle
  8
Layer 4
 62
256
370
-1
  6
ByLayer
 10
92.5
 20
107.5
 30
0.0
 40
2.3999999999999999
  0
CIRCLE
  5
125
100
AcDbEntity
100
AcDbCircle
  8
Layer 4
 62
256
370
-1
  6
ByLayer
 10
92.5
 20
150.0
 30
0.0
 40
2.3999999999999999
  0
CIRCLE
  5
126
100
AcDbEntity
100
AcDbCircle
  8
Layer 4
 62
256
370
-1
  6
ByLayer
 10
49.9999850054043975
 20
134.7798160249545276
 30
0.0
 40
32.5
  0
CIRCLE
  5
127
100
AcDbEntity
100
AcDbCircle
  8
Layer 4
 62
256
370
-1
  6
ByLayer
 10
31.5
 20
104.0
 30
0.0
 40
1.4299999999999999
  0
CIRCLE
  5
128
100
AcDbEntity
100
AcDbCircle
  8
Layer 4
 62
256
370
-1
  6
ByLayer
 10
68.5
 20
104.0
 30
0.0
 40
1.4299999999999999
  0
CIRCLE
  5
129
100
AcDbEntity
100
AcDbCircle
  8
Drive Retainer
 62
256
370
-1
  6
ByLayer
 10
249.9999850054043975
 20
254.7798160249545276
 30
0.0
 40
1.4299999999999999
  0
CIRCLE
  5
12A
100
AcDbEntity
100
AcDbCircle
  8
Drive Retainer
 62
256
370
-1
  6
ByLayer
 10
232.6794769297156336
 20
224.7798160249545276
 30
0.0
 40
1.4299999999999999
  0
CIRCLE
  5
12B
100
AcDbEntity
100
AcDbCircle
  8
Drive Retainer
 62
256
370
-1
  6
ByLayer
 10
267.3204930810931614
 20
224.7798160249545276
 30
0.0
 40
1.4299999999999999
  0
MTEXT
  5
12C
100
AcDbEntity
100
AcDbMText
  8
Drive Retainer Text
 62
256
370
-1
  6
ByLayer
 10
250.0
 20
247.0
 30
0.0
 40
3.0
 41
100.0
 71
5
 72
2
  1
Drive\~Retainer
  7
standard
 50
0.0
 73
1
 44
1.0
  0
CIRCLE
  5
12D
100
AcDbEntity
100
AcDbCircle
  8
Drive Retainer
 62
256
370
-1
  6
ByLayer
 10
249.9999850054043975
 20
234.7798160249545276
 30
0.0
 40
8.0
  0
MTEXT
  5
12E
100
AcDbEntity
100
AcDbMText
  8
Rotor Plate Text
 62
256
370
-1
  6
ByLayer
 10
50.0
 20
116.0
 30
0.0
 40
3.0
 41
100.0
 71
5
 72
2
  1
Rotor\~Plate
  7
standard
 50
0.0
 73
1
 44
1.0
  0
CIRCLE
  5
12F
100
AcDbEntity
100
AcDbCircle
  8
Rotor Plate Text
 62
256
370
-1
  6
ByLayer
 10
49.9999850054043975
 20
153.7798160249545276
 30
0.0
 40
8.0
  0
CIRCLE
  5
130
100
AcDbEntity
100
AcDbCircle
  8
Rotor Plate
 62
256
370
-1
  6
ByLayer
 10
49.9999850054043975
 20
134.7798160249545276
 30
0.0
 40
27.0
  0
CIRCLE
  5
131
100
AcDbEntity
100
AcDbCircle
  8
Rotor Plate
 62
256
370
-1
  6
ByLayer
 10
49.9999850054043975
 20
153.7798160249545276
 30
0.0
 40
3.9300000000000002
  0
CIRCLE
  5
132
100
AcDbEntity
100
AcDbCircle
  8
Rotor Plate
 62
256
370
-1
  6
ByLayer
 10
33.5455023335000604
 20
125.2798160249545276
 30
0.0
 40
3.9300000000000002
  0
CIRCLE
  5
133
100
AcDbEntity
100
AcDbCircle
  8
Rotor Plate
 62
256
370
-1
  6
ByLayer
 10
66.4544676773087275
 20
125.2798160249545276
 30
0.0
 40
3.9300000000000002
  0
CIRCLE
  5
134
100
AcDbEntity
100
AcDbCircle
  8
Rotor Plate Text
 62
256
370
-1
  6
ByLayer
 10
33.5455023335000604
 20
125.2798160249545276
 30
0.0
 40
8.0
  0
CIRCLE
  5
135
100
AcDbEntity
100
AcDbCircle
  8
Rotor Plate Text
 62
256
370
-1
  6
ByLayer
 10
66.4544676773087275
 20
125.2798160249545276
 30
0.0
 40
8.0
  0
CIRCLE
  5
136
100
AcDbEntity
100
AcDbCircle
  8
Rotor Plate
 62
256
370
-1
  6
ByLayer
 10
49.9999850054043975
 20
134.7798160249545276
 30
0.0
 40
3.9300000000000002
  0
MTEXT
  5
137
100
AcDbEntity
100
AcDbMText
  8
Rotor Plate Text
 62
256
370
-1
  6
ByLayer
 10
50.0
 20
142.0
 30
0.0
 40
6.0
 41
100.0
 71
5
 72
2
  1
3\~Rollers
  7
standard
 50
0.0
 73
1
 44
1.0
  0
CIRCLE
  5
138
100
AcDbEntity
100
AcDbCircle
  8
Rotor Plate 2
 62
256
370
-1
  6
ByLayer
 10
149.9999850054043975
 20
134.7798160249545276
 30
0.0
 40
27.0
  0
CIRCLE
  5
139
100
AcDbEntity
100
AcDbCircle
  8
Rotor Plate 2
 62
256
370
-1
  6
ByLayer
 10
149.9999850054043975
 20
153.7798160249545276
 30
0.0
 40
3.9300000000000002
  0
CIRCLE
  5
13A
100
AcDbEntity
100
AcDbCircle
  8
Rotor Plate 2
 62
256
370
-1
  6
ByLayer
 10
149.9999850054043975
 20
134.7798160249545276
 30
0.0
 40
3.9300000000000002
  0
CIRCLE
  5
13B
100
AcDbEntity
100
AcDbCircle
  8
Rotor Plate 2 Text
 62
256
370
-1
  6
ByLayer
 10
149.9999850054043975
 20
153.7798160249545276
 30
0.0
 40
8.0
  0
CIRCLE
  5
13C
100
AcDbEntity
100
AcDbCircle
  8
Rotor Plate 2
 62
256
370
-1
  6
ByLayer
 10
149.9999850054043975
 20
115.7798160249545418
 30
0.0
 40
3.9300000000000002
  0
CIRCLE
  5
13D
100
AcDbEntity
100
AcDbCircle
  8
Rotor Plate 2 Text
 62
256
370
-1
  6
ByLayer
 10
149.9999850054043975
 20
115.7798160249545418
 30
0.0
 40
8.0
  0
MTEXT
  5
13E
100
AcDbEntity
100
AcDbMText
  8
Rotor Plate 2 Text
 62
256
370
-1
  6
ByLayer
 10
150.0
 20
142.0
 30
0.0
 40
6.0
 41
100.0
 71
5
 72
2
  1
2\~Rollers
  7
standard
 50
0.0
 73
1
 44
1.0
  0
MTEXT
  5
13F
100
AcDbEntity
100
AcDbMText
  8
Rotor Plate 2 Text
 62
256
370
-1
  6
ByLayer
 10
150.0000149945956025
 20
127.2201839750454724
 30
0.0
 40
6.0
 41
100.0
 71
5
 72
2
  1
Rotor\~Plate
  7
standard
 50
0.0
 73
1
 44
1.0
  0
LINE
  5
140
100
AcDbEntity
100
AcDbLine
  8
Rotor Gear
 62
256
370
-1
  6
ByLayer
 10
290.6358124498556208
 20
41.3800205816266882
 30
0.0
 11
291.9831489993306377
 21
41.0470090787671893
 31
0.0
  0
LINE
  5
141
100
AcDbEntity
100
AcDbLine
  8
Rotor Gear
 62
256
370
-1
  6
ByLayer
 10
291.9831489993306377
 20
41.0470090787671893
 30
0.0
 11
293.3296477009390628
 21
40.5152376500734661
 31
0.0
  0
LINE
  5
142
100
AcDbEntity
100
AcDbLine
  8
Rotor Gear
 62
256
370
-1
  6
ByLayer
 10
293.3296477009390628
 20
40.5152376500734661
 30
0.0
 11
293.3296477009390628
 21
39.4847857017844532
 31
0.0
  0
LINE
  5
143
100
AcDbEntity
100
AcDbLine
  8
Rotor Gear
 62
256
370
-1
  6
ByLayer
 10
293.3296477009390628
 20
39.4847857017844532
 30
0.0
 11
291.9831489993306377
 21
38.9530142730907656
 31
0.0
  0
LINE
  5
144
100
AcDbEntity
100
AcDbLine
  8
Rotor Gear
 62
256
370
-1
  6
ByLayer
 10
291.9831489993306377
 20
38.9530142730907656
 30
0.0
 11
290.6358124498556208
 21
38.6200027702312596
 31
0.0
  0
LINE
  5
145
100
AcDbEntity
100
AcDbLine
  8
Rotor Gear
 62
256
370
-1
  6
ByLayer
 10
290.6358124498556208
 20
38.6200027702312596
 30
0.0
 11
290.5539207986308838
 21
37.3694283729120613
 31
0.0
  0
LINE
  5
146
100
AcDbEntity
100
AcDbLine
  8
Rotor Gear
 62
256
370
-1
  6
ByLayer
 10
290.5539207986308838
 20
37.3694283729120613
 30
0.0
 11
291.846174602267638
 21
36.8634179831852791
 31
0.0
  0
LINE
  5
147
100
AcDbEntity
100
AcDbLine
  8
Rotor Gear
 62
256
370
-1
  6
ByLayer
 10
291.846174602267638
 20
36.8634179831852791
 30
0.0
 11
293.1118280348406984
 21
36.1605326397954414
 31
0.0
  0
LINE
  5
148
100
AcDbEntity
100
AcDbLine
  8
Rotor Gear
 62
256
370
-1
  6
ByLayer
 10
293.1118280348406984
 20
36.1605326397954414
 30
0.0
 11
292.9771579049396451
 21
35.1386684466105166
 31
0.0
  0
LINE
  5
149
100
AcDbEntity
100
AcDbLine
  8
Rotor Gear
 62
256
370
-1
  6
ByLayer
 10
292.9771579049396451
 20
35.1386684466105166
 30
0.0
 11
291.5728536374551823
 21
34.7872257749155906
 31
0.0
  0
LINE
  5
14A
100
AcDbEntity
100
AcDbLine
  8
Rotor Gear
 62
256
370
-1
  6
ByLayer
 10
291.5728536374551823
 20
34.7872257749155906
 30
0.0
 11
290.1936818375090752
 21
34.6328673333215846
 31
0.0
  0
LINE
  5
14B
100
AcDbEntity
100
AcDbLine
  8
Rotor Gear
 62
256
370
-1
  6
ByLayer
 10
290.1936818375090752
 20
34.6328673333215846
 30
0.0
 11
289.9492640266921626
 21
33.4038654777513955
 31
0.0
  0
LINE
  5
14C
100
AcDbEntity
100
AcDbLine
  8
Rotor Gear
 62
256
370
-1
  6
ByLayer
 10
289.9492640266921626
 20
33.4038654777513955
 30
0.0
 11
291.1642332291979756
 21
32.7334439562613966
 31
0.0
  0
LINE
  5
14D
100
AcDbEntity
100
AcDbLine
  8
Rotor Gear
 62
256
370
-1
  6
ByLayer
 10
291.1642332291979756
 20
32.7334439562613966
 30
0.0
 11
292.3272610587790155
 21
31.871383102630837
 31
0.0
  0
LINE
  5
14E
100
AcDbEntity
100
AcDbLine
  8
Rotor Gear
 62
256
370
-1
  6
ByLayer
 10
292.3272610587790155
 20
31.871383102630837
 30
0.0
 11
292.060642134784473
 21
30.8759085198415661
 31
0.0
  0
LINE
  5
14F
100
AcDbEntity
100
AcDbLine
  8
Rotor Gear
 62
256
370
-1
  6
ByLayer
 10
292.060642134784473
 20
30.8759085198415661
 30
0.0
 11
290.622408368219908
 21
30.7108688166496435
 31
0.0
  0
LINE
  5
150
100
AcDbEntity
100
AcDbLine
  8
Rotor Gear
 62
256
370
-1
  6
ByLayer
 10
290.622408368219908
 20
30.7108688166496435
 30
0.0
 11
289.2348595738376957
 21
30.7378869984740177
 31
0.0
  0
LINE
  5
151
100
AcDbEntity
100
AcDbLine
  8
Rotor Gear
 62
256
370
-1
  6
ByLayer
 10
289.2348595738376957
 20
30.7378869984740177
 30
0.0
 11
288.831894082093811
 21
29.5511923785350277
 31
0.0
  0
LINE
  5
152
100
AcDbEntity
100
AcDbLine
  8
Rotor Gear
 62
256
370
-1
  6
ByLayer
 10
288.831894082093811
 20
29.5511923785350277
 30
0.0
 11
289.9492640266921626
 21
28.7278780926313644
 31
0.0
  0
LINE
  5
153
100
AcDbEntity
100
AcDbLine
  8
Rotor Gear
 62
256
370
-1
  6
ByLayer
 10
289.9492640266921626
 20
28.7278780926313644
 30
0.0
 11
290.98976866515045
 21
27.7213029532533
 31
0.0
  0
LINE
  5
154
100
AcDbEntity
100
AcDbLine
  8
Rotor Gear
 62
256
370
-1
  6
ByLayer
 10
290.98976866515045
 20
27.7213029532533
 30
0.0
 11
290.5953901863954911
 21
26.7691827303997769
 31
0.0
  0
LINE
  5
155
100
AcDbEntity
100
AcDbLine
  8
Rotor Gear
 62
256
370
-1
  6
ByLayer
 10
290.5953901863954911
 20
26.7691827303997769
 30
0.0
 11
289.147941577528286
 21
26.7932680736335485
 31
0.0
  0
LINE
  5
156
100
AcDbEntity
100
AcDbLine
  8
Rotor Gear
 62
256
370
-1
  6
ByLayer
 10
289.147941577528286
 20
26.7932680736335485
 30
0.0
 11
287.7756818369529128
 21
27.0010343074475898
 31
0.0
  0
LINE
  5
157
100
AcDbEntity
100
AcDbLine
  8
Rotor Gear
 62
256
370
-1
  6
ByLayer
 10
287.7756818369529128
 20
27.0010343074475898
 30
0.0
 11
287.2215000186436669
 21
25.8773816170221806
 31
0.0
  0
LINE
  5
158
100
AcDbEntity
100
AcDbLine
  8
Rotor Gear
 62
256
370
-1
  6
ByLayer
 10
287.2215000186436669
 20
25.8773816170221806
 30
0.0
 11
288.2217916700796536
 21
24.9152079618843345
 31
0.0
  0
LINE
  5
159
100
AcDbEntity
100
AcDbLine
  8
Rotor Gear
 62
256
370
-1
  6
ByLayer
 10
288.2217916700796536
 20
24.9152079618843345
 30
0.0
 11
289.1219705200084036
 21
23.7815018391746129
 31
0.0
  0
LINE
  5
15A
100
AcDbEntity
100
AcDbLine
  8
Rotor Gear
 62
256
370
-1
  6
ByLayer
 10
289.1219705200084036
 20
23.7815018391746129
 30
0.0
 11
288.6067445458639327
 21
22.8888628779303467
 31
0.0
  0
LINE
  5
15B
100
AcDbEntity
100
AcDbLine
  8
Rotor Gear
 62
256
370
-1
  6
ByLayer
 10
288.6067445458639327
 20
22.8888628779303467
 30
0.0
 11
287.1747942672414524
 21
23.101654714713991
 31
0.0
  0
LINE
  5
15C
100
AcDbEntity
100
AcDbLine
  8
Rotor Gear
 62
256
370
-1
  6
ByLayer
 10
287.1747942672414524
 20
23.101654714713991
 30
0.0
 11
285.8412810943930253
 21
23.4868176090511724
 31
0.0
  0
LINE
  5
15D
100
AcDbEntity
100
AcDbLine
  8
Rotor Gear
 62
256
370
-1
  6
ByLayer
 10
285.8412810943930253
 20
23.4868176090511724
 30
0.0
 11
285.145307810373879
 21
22.4450565698505144
 31
0.0
  0
LINE
  5
15E
100
AcDbEntity
100
AcDbLine
  8
Rotor Gear
 62
256
370
-1
  6
ByLayer
 10
285.145307810373879
 20
22.4450565698505144
 30
0.0
 11
286.0113478847846409
 21
21.3605690000278301
 31
0.0
  0
LINE
  5
15F
100
AcDbEntity
100
AcDbLine
  8
Rotor Gear
 62
256
370
-1
  6
ByLayer
 10
286.0113478847846409
 20
21.3605690000278301
 30
0.0
 11
286.7559118923770143
 21
20.1190009106884382
 31
0.0
  0
LINE
  5
160
100
AcDbEntity
100
AcDbLine
  8
Rotor Gear
 62
256
370
-1
  6
ByLayer
 10
286.7559118923770143
 20
20.1190009106884382
 30
0.0
 11
286.1284254358319004
 21
19.3013415412981608
 31
0.0
  0
LINE
  5
161
100
AcDbEntity
100
AcDbLine
  8
Rotor Gear
 62
256
370
-1
  6
ByLayer
 10
286.1284254358319004
 20
19.3013415412981608
 30
0.0
 11
284.7364781256787865
 21
19.6992799458423917
 31
0.0
  0
LINE
  5
162
100
AcDbEntity
100
AcDbLine
  8
Rotor Gear
 62
256
370
-1
  6
ByLayer
 10
284.7364781256787865
 20
19.6992799458423917
 30
0.0
 11
283.4649597580394129
 21
20.2551374598848817
 31
0.0
  0
LINE
  5
163
100
AcDbEntity
100
AcDbLine
  8
Rotor Gear
 62
256
370
-1
  6
ByLayer
 10
283.4649597580394129
 20
20.2551374598848817
 30
0.0
 11
282.6387133756600747
 21
19.313070669315703
 31
0.0
  0
LINE
  5
164
100
AcDbEntity
100
AcDbLine
  8
Rotor Gear
 62
256
370
-1
  6
ByLayer
 10
282.6387133756600747
 20
19.313070669315703
 30
0.0
 11
283.3558406485523165
 21
18.1249096300813903
 31
0.0
  0
LINE
  5
165
100
AcDbEntity
100
AcDbLine
  8
Rotor Gear
 62
256
370
-1
  6
ByLayer
 10
283.3558406485523165
 20
18.1249096300813903
 30
0.0
 11
283.9320135614863148
 21
16.7968420973083887
 31
0.0
  0
LINE
  5
166
100
AcDbEntity
100
AcDbLine
  8
Rotor Gear
 62
256
370
-1
  6
ByLayer
 10
283.9320135614863148
 20
16.7968420973083887
 30
0.0
 11
283.2031579026916006
 21
16.0679864385136817
 31
0.0
  0
LINE
  5
167
100
AcDbEntity
100
AcDbLine
  8
Rotor Gear
 62
256
370
-1
  6
ByLayer
 10
283.2031579026916006
 20
16.0679864385136817
 30
0.0
 11
281.8750903699186097
 21
16.6441593514476764
 31
0.0
  0
LINE
  5
168
100
AcDbEntity
100
AcDbLine
  8
Rotor Gear
 62
256
370
-1
  6
ByLayer
 10
281.8750903699186097
 20
16.6441593514476764
 30
0.0
 11
280.6869293306842792
 21
17.3612866243399182
 31
0.0
  0
LINE
  5
169
100
AcDbEntity
100
AcDbLine
  8
Rotor Gear
 62
256
370
-1
  6
ByLayer
 10
280.6869293306842792
 20
17.3612866243399182
 30
0.0
 11
279.7448625401150935
 21
16.5350402419606048
 31
0.0
  0
LINE
  5
16A
100
AcDbEntity
100
AcDbLine
  8
Rotor Gear
 62
256
370
-1
  6
ByLayer
 10
279.7448625401150935
 20
16.5350402419606048
 30
0.0
 11
280.3007200541576367
 21
15.2635218743212242
 31
0.0
  0
LINE
  5
16B
100
AcDbEntity
100
AcDbLine
  8
Rotor Gear
 62
256
370
-1
  6
ByLayer
 10
280.3007200541576367
 20
15.2635218743212242
 30
0.0
 11
280.6986584587018569
 21
13.8715745641680499
 31
0.0
  0
LINE
  5
16C
100
AcDbEntity
100
AcDbLine
  8
Rotor Gear
 62
256
370
-1
  6
ByLayer
 10
280.6986584587018569
 20
13.8715745641680499
 30
0.0
 11
279.8809990893115582
 21
13.2440881076229999
 31
0.0
  0
LINE
  5
16D
100
AcDbEntity
100
AcDbLine
  8
Rotor Gear
 62
256
370
-1
  6
ByLayer
 10
279.8809990893115582
 20
13.2440881076229999
 30
0.0
 11
278.6394309999722054
 21
13.988652115215416
 31
0.0
  0
LINE
  5
16E
100
AcDbEntity
100
AcDbLine
  8
Rotor Gear
 62
256
370
-1
  6
ByLayer
 10
278.6394309999722054
 20
13.988652115215416
 30
0.0
 11
277.5549434301494784
 21
14.8546921896261033
 31
0.0
  0
LINE
  5
16F
100
AcDbEntity
100
AcDbLine
  8
Rotor Gear
 62
256
370
-1
  6
ByLayer
 10
277.5549434301494784
 20
14.8546921896261033
 30
0.0
 11
276.5131823909488276
 21
14.1587189056070173
 31
0.0
  0
LINE
  5
170
100
AcDbEntity
100
AcDbLine
  8
Rotor Gear
 62
256
370
-1
  6
ByLayer
 10
276.5131823909488276
 20
14.1587189056070173
 30
0.0
 11
276.898345285286041
 21
12.8252057327585831
 31
0.0
  0
LINE
  5
171
100
AcDbEntity
100
AcDbLine
  8
Rotor Gear
 62
256
370
-1
  6
ByLayer
 10
276.898345285286041
 20
12.8252057327585831
 30
0.0
 11
277.1111371220696356
 21
11.3932554541361029
 31
0.0
  0
LINE
  5
172
100
AcDbEntity
100
AcDbLine
  8
Rotor Gear
 62
256
370
-1
  6
ByLayer
 10
277.1111371220696356
 20
11.3932554541361029
 30
0.0
 11
276.2184981608253338
 21
10.8780294799916
 31
0.0
  0
LINE
  5
173
100
AcDbEntity
100
AcDbLine
  8
Rotor Gear
 62
256
370
-1
  6
ByLayer
 10
276.2184981608253338
 20
10.8780294799916
 30
0.0
 11
275.0847920381156655
 21
11.7782083299203393
 31
0.0
  0
LINE
  5
174
100
AcDbEntity
100
AcDbLine
  8
Rotor Gear
 62
256
370
-1
  6
ByLayer
 10
275.0847920381156655
 20
11.7782083299203393
 30
0.0
 11
274.122618382977862
 21
12.7784999813563473
 31
0.0
  0
LINE
  5
175
100
AcDbEntity
100
AcDbLine
  8
Rotor Gear
 62
256
370
-1
  6
ByLayer
 10
274.122618382977862
 20
12.7784999813563473
 30
0.0
 11
272.9989656925524741
 21
12.2243181630470694
 31
0.0
  0
LINE
  5
176
100
AcDbEntity
100
AcDbLine
  8
Rotor Gear
 62
256
370
-1
  6
ByLayer
 10
272.9989656925524741
 20
12.2243181630470694
 30
0.0
 11
273.2067319263664444
 21
10.8520584224717282
 31
0.0
  0
LINE
  5
177
100
AcDbEntity
100
AcDbLine
  8
Rotor Gear
 62
256
370
-1
  6
ByLayer
 10
273.2067319263664444
 20
10.8520584224717282
 30
0.0
 11
273.230817269600152
 21
9.4046098136044769
 31
0.0
  0
LINE
  5
178
100
AcDbEntity
100
AcDbLine
  8
Rotor Gear
 62
256
370
-1
  6
ByLayer
 10
273.230817269600152
 20
9.4046098136044769
 30
0.0
 11
272.278697046746629
 21
9.0102313348495819
 31
0.0
  0
LINE
  5
179
100
AcDbEntity
100
AcDbLine
  8
Rotor Gear
 62
256
370
-1
  6
ByLayer
 10
272.278697046746629
 20
9.0102313348495819
 30
0.0
 11
271.2721219073686143
 21
10.0507359733078161
 31
0.0
  0
LINE
  5
17A
100
AcDbEntity
100
AcDbLine
  8
Rotor Gear
 62
256
370
-1
  6
ByLayer
 10
271.2721219073686143
 20
10.0507359733078161
 30
0.0
 11
270.4488076214649936
 21
11.1681059179061748
 31
0.0
  0
LINE
  5
17B
100
AcDbEntity
100
AcDbLine
  8
Rotor Gear
 62
256
370
-1
  6
ByLayer
 10
270.4488076214649936
 20
11.1681059179061748
 30
0.0
 11
269.262113001525961
 21
10.7651404261623149
 31
0.0
  0
LINE
  5
17C
100
AcDbEntity
100
AcDbLine
  8
Rotor Gear
 62
256
370
-1
  6
ByLayer
 10
269.262113001525961
 20
10.7651404261623149
 30
0.0
 11
269.2891311833503778
 21
9.3775916317800885
 31
0.0
  0
LINE
  5
17D
100
AcDbEntity
100
AcDbLine
  8
Rotor Gear
 62
256
370
-1
  6
ByLayer
 10
269.2891311833503778
 20
9.3775916317800885
 30
0.0
 11
269.1240914801584267
 21
7.939357865215527
 31
0.0
  0
LINE
  5
17E
100
AcDbEntity
100
AcDbLine
  8
Rotor Gear
 62
256
370
-1
  6
ByLayer
 10
269.1240914801584267
 20
7.939357865215527
 30
0.0
 11
268.1286168973691701
 21
7.6727389412209916
 31
0.0
  0
LINE
  5
17F
100
AcDbEntity
100
AcDbLine
  8
Rotor Gear
 62
256
370
-1
  6
ByLayer
 10
268.1286168973691701
 20
7.6727389412209916
 30
0.0
 11
267.2665560437386603
 21
8.8357667708020422
 31
0.0
  0
LINE
  5
180
100
AcDbEntity
100
AcDbLine
  8
Rotor Gear
 62
256
370
-1
  6
ByLayer
 10
267.2665560437386603
 20
8.8357667708020422
 30
0.0
 11
266.5961345222485761
 21
10.0507359733078196
 31
0.0
  0
LINE
  5
181
100
AcDbEntity
100
AcDbLine
  8
Rotor Gear
 62
256
370
-1
  6
ByLayer
 10
266.5961345222485761
 20
10.0507359733078196
 30
0.0
 11
265.3671326666783443
 21
9.8063181624909603
 31
0.0
  0
LINE
  5
182
100
AcDbEntity
100
AcDbLine
  8
Rotor Gear
 62
256
370
-1
  6
ByLayer
 10
265.3671326666783443
 20
9.8063181624909603
 30
0.0
 11
265.212774225084388
 21
8.4271463625447893
 31
0.0
  0
LINE
  5
183
100
AcDbEntity
100
AcDbLine
  8
Rotor Gear
 62
256
370
-1
  6
ByLayer
 10
265.212774225084388
 20
8.4271463625447893
 30
0.0
 11
264.8613315533895047
 21
7.0228420950603905
 31
0.0
  0
LINE
  5
184
100
AcDbEntity
100
AcDbLine
  8
Rotor Gear
 62
256
370
-1
  6
ByLayer
 10
264.8613315533895047
 20
7.0228420950603905
 30
0.0
 11
263.8394673602045373
 21
6.8881719651592874
 31
0.0
  0
LINE
  5
185
100
AcDbEntity
100
AcDbLine
  8
Rotor Gear
 62
256
370
-1
  6
ByLayer
 10
263.8394673602045373
 20
6.8881719651592874
 30
0.0
 11
263.1365820168147138
 21
8.1538253977323905
 31
0.0
  0
LINE
  5
186
100
AcDbEntity
100
AcDbLine
  8
Rotor Gear
 62
256
370
-1
  6
ByLayer
 10
263.1365820168147138
 20
8.1538253977323905
 30
0.0
 11
262.6305716270879316
 21
9.4460792013691233
 31
0.0
  0
LINE
  5
187
100
AcDbEntity
100
AcDbLine
  8
Rotor Gear
 62
256
370
-1
  6
ByLayer
 10
262.6305716270879316
 20
9.4460792013691233
 30
0.0
 11
261.3799972297687191
 21
9.3641875501443614
 31
0.0
  0
LINE
  5
188
100
AcDbEntity
100
AcDbLine
  8
Rotor Gear
 62
256
370
-1
  6
ByLayer
 10
261.3799972297687191
 20
9.3641875501443614
 30
0.0
 11
261.0469857269092131
 21
8.0168510006693481
 31
0.0
  0
LINE
  5
189
100
AcDbEntity
100
AcDbLine
  8
Rotor Gear
 62
256
370
-1
  6
ByLayer
 10
261.0469857269092131
 20
8.0168510006693481
 30
0.0
 11
260.5152142982154828
 21
6.6703522990609372
 31
0.0
  0
LINE
  5
18A
100
AcDbEntity
100
AcDbLine
  8
Rotor Gear
 62
256
370
-1
  6
ByLayer
 10
260.5152142982154828
 20
6.6703522990609372
 30
0.0
 11
259.484762349926541
 21
6.6703522990609372
 31
0.0
  0
LINE
  5
18B
100
AcDbEntity
100
AcDbLine
  8
Rotor Gear
 62
256
370
-1
  6
ByLayer
 10
259.484762349926541
 20
6.6703522990609372
 30
0.0
 11
258.9529909212327539
 21
8.0168510006693481
 31
0.0
  0
LINE
  5
18C
100
AcDbEntity
100
AcDbLine
  8
Rotor Gear
 62
256
370
-1
  6
ByLayer
 10
258.9529909212327539
 20
8.0168510006693481
 30
0.0
 11
258.6199794183733047
 21
9.364187550144365
 31
0.0
  0
LINE
  5
18D
100
AcDbEntity
100
AcDbLine
  8
Rotor Gear
 62
256
370
-1
  6
ByLayer
 10
258.6199794183733047
 20
9.364187550144365
 30
0.0
 11
257.3694050210540354
 21
9.4460792013691233
 31
0.0
  0
LINE
  5
18E
100
AcDbEntity
100
AcDbLine
  8
Rotor Gear
 62
256
370
-1
  6
ByLayer
 10
257.3694050210540354
 20
9.4460792013691233
 30
0.0
 11
256.86339463132731
 21
8.1538253977323905
 31
0.0
  0
LINE
  5
18F
100
AcDbEntity
100
AcDbLine
  8
Rotor Gear
 62
256
370
-1
  6
ByLayer
 10
256.86339463132731
 20
8.1538253977323905
 30
0.0
 11
256.1605092879374865
 21
6.8881719651592874
 31
0.0
  0
LINE
  5
190
100
AcDbEntity
100
AcDbLine
  8
Rotor Gear
 62
256
370
-1
  6
ByLayer
 10
256.1605092879374865
 20
6.8881719651592874
 30
0.0
 11
255.1386450947525191
 21
7.0228420950603905
 31
0.0
  0
LINE
  5
191
100
AcDbEntity
100
AcDbLine
  8
Rotor Gear
 62
256
370
-1
  6
ByLayer
 10
255.1386450947525191
 20
7.0228420950603905
 30
0.0
 11
254.7872024230576073
 21
8.4271463625447929
 31
0.0
  0
LINE
  5
192
100
AcDbEntity
100
AcDbLine
  8
Rotor Gear
 62
256
370
-1
  6
ByLayer
 10
254.7872024230576073
 20
8.4271463625447929
 30
0.0
 11
254.6328439814636511
 21
9.8063181624909603
 31
0.0
  0
LINE
  5
193
100
AcDbEntity
100
AcDbLine
  8
Rotor Gear
 62
256
370
-1
  6
ByLayer
 10
254.6328439814636511
 20
9.8063181624909603
 30
0.0
 11
253.4038421258933909
 21
10.0507359733078268
 31
0.0
  0
LINE
  5
194
100
AcDbEntity
100
AcDbLine
  8
Rotor Gear
 62
256
370
-1
  6
ByLayer
 10
253.4038421258933909
 20
10.0507359733078268
 30
0.0
 11
252.733420604403392
 21
8.8357667708020422
 31
0.0
  0
LINE
  5
195
100
AcDbEntity
100
AcDbLine
  8
Rotor Gear
 62
256
370
-1
  6
ByLayer
 10
252.733420604403392
 20
8.8357667708020422
 30
0.0
 11
251.8713597507728537
 21
7.6727389412209916
 31
0.0
  0
LINE
  5
196
100
AcDbEntity
100
AcDbLine
  8
Rotor Gear
 62
256
370
-1
  6
ByLayer
 10
251.8713597507728537
 20
7.6727389412209916
 30
0.0
 11
250.8758851679835971
 21
7.939357865215527
 31
0.0
  0
LINE
  5
197
100
AcDbEntity
100
AcDbLine
  8
Rotor Gear
 62
256
370
-1
  6
ByLayer
 10
250.8758851679835971
 20
7.939357865215527
 30
0.0
 11
250.7108454647916176
 21
9.377591631780092
 31
0.0
  0
LINE
  5
198
100
AcDbEntity
100
AcDbLine
  8
Rotor Gear
 62
256
370
-1
  6
ByLayer
 10
250.7108454647916176
 20
9.377591631780092
 30
0.0
 11
250.7378636466160629
 21
10.7651404261623149
 31
0.0
  0
LINE
  5
199
100
AcDbEntity
100
AcDbLine
  8
Rotor Gear
 62
256
370
-1
  6
ByLayer
 10
250.7378636466160629
 20
10.7651404261623149
 30
0.0
 11
249.5511690266770302
 21
11.1681059179061855
 31
0.0
  0
LINE
  5
19A
100
AcDbEntity
100
AcDbLine
  8
Rotor Gear
 62
256
370
-1
  6
ByLayer
 10
249.5511690266770302
 20
11.1681059179061855
 30
0.0
 11
248.7278547407734095
 21
10.0507359733078196
 31
0.0
  0
LINE
  5
19B
100
AcDbEntity
100
AcDbLine
  8
Rotor Gear
 62
256
370
-1
  6
ByLayer
 10
248.7278547407734095
 20
10.0507359733078196
 30
0.0
 11
247.721279601395338
 21
9.0102313348495855
 31
0.0
  0
LINE
  5
19C
100
AcDbEntity
100
AcDbLine
  8
Rotor Gear
 62
256
370
-1
  6
ByLayer
 10
247.721279601395338
 20
9.0102313348495855
 30
0.0
 11
246.7691593785418434
 21
9.4046098136044805
 31
0.0
  0
LINE
  5
19D
100
AcDbEntity
100
AcDbLine
  8
Rotor Gear
 62
256
370
-1
  6
ByLayer
 10
246.7691593785418434
 20
9.4046098136044805
 30
0.0
 11
246.7932447217755794
 21
10.8520584224717318
 31
0.0
  0
LINE
  5
19E
100
AcDbEntity
100
AcDbLine
  8
Rotor Gear
 62
256
370
-1
  6
ByLayer
 10
246.7932447217755794
 20
10.8520584224717318
 30
0.0
 11
247.0010109555895781
 21
12.2243181630470801
 31
0.0
  0
LINE
  5
19F
100
AcDbEntity
100
AcDbLine
  8
Rotor Gear
 62
256
370
-1
  6
ByLayer
 10
247.0010109555895781
 20
12.2243181630470801
 30
0.0
 11
245.8773582651641618
 21
12.7784999813563509
 31
0.0
  0
LINE
  5
1A0
100
AcDbEntity
100
AcDbLine
  8
Rotor Gear
 62
256
370
-1
  6
ByLayer
 10
245.8773582651641618
 20
12.7784999813563509
 30
0.0
 11
244.9151846100263583
 21
11.7782083299203428
 31
0.0
  0
LINE
  5
1A1
100
AcDbEntity
100
AcDbLine
  8
Rotor Gear
 62
256
370
-1
  6
ByLayer
 10
244.9151846100263583
 20
11.7782083299203428
 30
0.0
 11
243.7814784873166616
 21
10.8780294799916
 31
0.0
  0
LINE
  5
1A2
100
AcDbEntity
100
AcDbLine
  8
Rotor Gear
 62
256
370
-1
  6
ByLayer
 10
243.7814784873166616
 20
10.8780294799916
 30
0.0
 11
242.8888395260723598
 21
11.3932554541361029
 31
0.0
  0
LINE
  5
1A3
100
AcDbEntity
100
AcDbLine
  8
Rotor Gear
 62
256
370
-1
  6
ByLayer
 10
242.8888395260723598
 20
11.3932554541361029
 30
0.0
 11
243.1016313628560113
 21
12.8252057327585938
 31
0.0
  0
LINE
  5
1A4
100
AcDbEntity
100
AcDbLine
  8
Rotor Gear
 62
256
370
-1
  6
ByLayer
 10
243.1016313628560113
 20
12.8252057327585938
 30
0.0
 11
243.4867942571931962
 21
14.1587189056070244
 31
0.0
  0
LINE
  5
1A5
100
AcDbEntity
100
AcDbLine
  8
Rotor Gear
 62
256
370
-1
  6
ByLayer
 10
243.4867942571931962
 20
14.1587189056070244
 30
0.0
 11
242.4450332179925454
 21
14.8546921896261104
 31
0.0
  0
LINE
  5
1A6
100
AcDbEntity
100
AcDbLine
  8
Rotor Gear
 62
256
370
-1
  6
ByLayer
 10
242.4450332179925454
 20
14.8546921896261104
 30
0.0
 11
241.3605456481698468
 21
13.9886521152154231
 31
0.0
  0
LINE
  5
1A7
100
AcDbEntity
100
AcDbLine
  8
Rotor Gear
 62
256
370
-1
  6
ByLayer
 10
241.3605456481698468
 20
13.9886521152154231
 30
0.0
 11
240.1189775588304656
 21
13.2440881076230106
 31
0.0
  0
LINE
  5
1A8
100
AcDbEntity
100
AcDbLine
  8
Rotor Gear
 62
256
370
-1
  6
ByLayer
 10
240.1189775588304656
 20
13.2440881076230106
 30
0.0
 11
239.3013181894401669
 21
13.871574564168057
 31
0.0
  0
LINE
  5
1A9
100
AcDbEntity
100
AcDbLine
  8
Rotor Gear
 62
256
370
-1
  6
ByLayer
 10
239.3013181894401669
 20
13.871574564168057
 30
0.0
 11
239.6992565939843871
 21
15.2635218743212349
 31
0.0
  0
LINE
  5
1AA
100
AcDbEntity
100
AcDbLine
  8
Rotor Gear
 62
256
370
-1
  6
ByLayer
 10
239.6992565939843871
 20
15.2635218743212349
 30
0.0
 11
240.2551141080269019
 21
16.5350402419606084
 31
0.0
  0
LINE
  5
1AB
100
AcDbEntity
100
AcDbLine
  8
Rotor Gear
 62
256
370
-1
  6
ByLayer
 10
240.2551141080269019
 20
16.5350402419606084
 30
0.0
 11
239.3130473174577162
 21
17.3612866243399289
 31
0.0
  0
LINE
  5
1AC
100
AcDbEntity
100
AcDbLine
  8
Rotor Gear
 62
256
370
-1
  6
ByLayer
 10
239.3130473174577162
 20
17.3612866243399289
 30
0.0
 11
238.1248862782234141
 21
16.6441593514476871
 31
0.0
  0
LINE
  5
1AD
100
AcDbEntity
100
AcDbLine
  8
Rotor Gear
 62
256
370
-1
  6
ByLayer
 10
238.1248862782234141
 20
16.6441593514476871
 30
0.0
 11
236.7968187454504232
 21
16.0679864385136817
 31
0.0
  0
LINE
  5
1AE
100
AcDbEntity
100
AcDbLine
  8
Rotor Gear
 62
256
370
-1
  6
ByLayer
 10
236.7968187454504232
 20
16.0679864385136817
 30
0.0
 11
236.067963086655709
 21
16.7968420973083923
 31
0.0
  0
LINE
  5
1AF
100
AcDbEntity
100
AcDbLine
  8
Rotor Gear
 62
256
370
-1
  6
ByLayer
 10
236.067963086655709
 20
16.7968420973083923
 30
0.0
 11
236.6441359995897074
 21
18.124909630081401
 31
0.0
  0
LINE
  5
1B0
100
AcDbEntity
100
AcDbLine
  8
Rotor Gear
 62
256
370
-1
  6
ByLayer
 10
236.6441359995897074
 20
18.124909630081401
 30
0.0
 11
237.3612632724819207
 21
19.3130706693157066
 31
0.0
  0
LINE
  5
1B1
100
AcDbEntity
100
AcDbLine
  8
Rotor Gear
 62
256
370
-1
  6
ByLayer
 10
237.3612632724819207
 20
19.3130706693157066
 30
0.0
 11
236.5350168901026393
 21
20.2551374598848781
 31
0.0
  0
LINE
  5
1B2
100
AcDbEntity
100
AcDbLine
  8
Rotor Gear
 62
256
370
-1
  6
ByLayer
 10
236.5350168901026393
 20
20.2551374598848781
 30
0.0
 11
235.2634985224632374
 21
19.6992799458423988
 31
0.0
  0
LINE
  5
1B3
100
AcDbEntity
100
AcDbLine
  8
Rotor Gear
 62
256
370
-1
  6
ByLayer
 10
235.2634985224632374
 20
19.6992799458423988
 30
0.0
 11
233.8715512123100666
 21
19.3013415412981821
 31
0.0
  0
LINE
  5
1B4
100
AcDbEntity
100
AcDbLine
  8
Rotor Gear
 62
256
370
-1
  6
ByLayer
 10
233.8715512123100666
 20
19.3013415412981821
 30
0.0
 11
233.2440647557650095
 21
20.1190009106884453
 31
0.0
  0
LINE
  5
1B5
100
AcDbEntity
100
AcDbLine
  8
Rotor Gear
 62
256
370
-1
  6
ByLayer
 10
233.2440647557650095
 20
20.1190009106884453
 30
0.0
 11
233.9886287633574113
 21
21.3605690000278372
 31
0.0
  0
LINE
  5
1B6
100
AcDbEntity
100
AcDbLine
  8
Rotor Gear
 62
256
370
-1
  6
ByLayer
 10
233.9886287633574113
 20
21.3605690000278372
 30
0.0
 11
234.8546688377681164
 21
22.4450565698505251
 31
0.0
  0
LINE
  5
1B7
100
AcDbEntity
100
AcDbLine
  8
Rotor Gear
 62
256
370
-1
  6
ByLayer
 10
234.8546688377681164
 20
22.4450565698505251
 30
0.0
 11
234.1586955537490269
 21
23.4868176090511831
 31
0.0
  0
LINE
  5
1B8
100
AcDbEntity
100
AcDbLine
  8
Rotor Gear
 62
256
370
-1
  6
ByLayer
 10
234.1586955537490269
 20
23.4868176090511831
 30
0.0
 11
232.8251823809005714
 21
23.1016547147139875
 31
0.0
  0
LINE
  5
1B9
100
AcDbEntity
100
AcDbLine
  8
Rotor Gear
 62
256
370
-1
  6
ByLayer
 10
232.8251823809005714
 20
23.1016547147139875
 30
0.0
 11
231.3932321022780911
 21
22.8888628779303396
 31
0.0
  0
LINE
  5
1BA
100
AcDbEntity
100
AcDbLine
  8
Rotor Gear
 62
256
370
-1
  6
ByLayer
 10
231.3932321022780911
 20
22.8888628779303396
 30
0.0
 11
230.8780061281336202
 21
23.7815018391746094
 31
0.0
  0
LINE
  5
1BB
100
AcDbEntity
100
AcDbLine
  8
Rotor Gear
 62
256
370
-1
  6
ByLayer
 10
230.8780061281336202
 20
23.7815018391746094
 30
0.0
 11
231.7781849780623702
 21
24.9152079618843416
 31
0.0
  0
LINE
  5
1BC
100
AcDbEntity
100
AcDbLine
  8
Rotor Gear
 62
256
370
-1
  6
ByLayer
 10
231.7781849780623702
 20
24.9152079618843416
 30
0.0
 11
232.7784766294983569
 21
25.8773816170221806
 31
0.0
  0
LINE
  5
1BD
100
AcDbEntity
100
AcDbLine
  8
Rotor Gear
 62
256
370
-1
  6
ByLayer
 10
232.7784766294983569
 20
25.8773816170221806
 30
0.0
 11
232.2242948111890826
 21
27.0010343074475898
 31
0.0
  0
LINE
  5
1BE
100
AcDbEntity
100
AcDbLine
  8
Rotor Gear
 62
256
370
-1
  6
ByLayer
 10
232.2242948111890826
 20
27.0010343074475898
 30
0.0
 11
230.8520350706137378
 21
26.7932680736335556
 31
0.0
  0
LINE
  5
1BF
100
AcDbEntity
100
AcDbLine
  8
Rotor Gear
 62
256
370
-1
  6
ByLayer
 10
230.8520350706137378
 20
26.7932680736335556
 30
0.0
 11
229.4045864617465043
 21
26.7691827303997982
 31
0.0
  0
LINE
  5
1C0
100
AcDbEntity
100
AcDbLine
  8
Rotor Gear
 62
256
370
-1
  6
ByLayer
 10
229.4045864617465043
 20
26.7691827303997982
 30
0.0
 11
229.0102079829915738
 21
27.7213029532532929
 31
0.0
  0
LINE
  5
1C1
100
AcDbEntity
100
AcDbLine
  8
Rotor Gear
 62
256
370
-1
  6
ByLayer
 10
229.0102079829915738
 20
27.7213029532532929
 30
0.0
 11
230.0507126214498328
 21
28.7278780926313786
 31
0.0
  0
LINE
  5
1C2
100
AcDbEntity
100
AcDbLine
  8
Rotor Gear
 62
256
370
-1
  6
ByLayer
 10
230.0507126214498328
 20
28.7278780926313786
 30
0.0
 11
231.1680825660481844
 21
29.5511923785350419
 31
0.0
  0
LINE
  5
1C3
100
AcDbEntity
100
AcDbLine
  8
Rotor Gear
 62
256
370
-1
  6
ByLayer
 10
231.1680825660481844
 20
29.5511923785350419
 30
0.0
 11
230.7651170743043281
 21
30.737886998474039
 31
0.0
  0
LINE
  5
1C4
100
AcDbEntity
100
AcDbLine
  8
Rotor Gear
 62
256
370
-1
  6
ByLayer
 10
230.7651170743043281
 20
30.737886998474039
 30
0.0
 11
229.3775682799221158
 21
30.7108688166496648
 31
0.0
  0
LINE
  5
1C5
100
AcDbEntity
100
AcDbLine
  8
Rotor Gear
 62
256
370
-1
  6
ByLayer
 10
229.3775682799221158
 20
30.7108688166496648
 30
0.0
 11
227.9393345133575508
 21
30.8759085198415804
 31
0.0
  0
LINE
  5
1C6
100
AcDbEntity
100
AcDbLine
  8
Rotor Gear
 62
256
370
-1
  6
ByLayer
 10
227.9393345133575508
 20
30.8759085198415804
 30
0.0
 11
227.6727155893630083
 21
31.8713831026308299
 31
0.0
  0
LINE
  5
1C7
100
AcDbEntity
100
AcDbLine
  8
Rotor Gear
 62
256
370
-1
  6
ByLayer
 10
227.6727155893630083
 20
31.8713831026308299
 30
0.0
 11
228.8357434189440482
 21
32.7334439562614108
 31
0.0
  0
LINE
  5
1C8
100
AcDbEntity
100
AcDbLine
  8
Rotor Gear
 62
256
370
-1
  6
ByLayer
 10
228.8357434189440482
 20
32.7334439562614108
 30
0.0
 11
230.0507126214498328
 21
33.4038654777514026
 31
0.0
  0
LINE
  5
1C9
100
AcDbEntity
100
AcDbLine
  8
Rotor Gear
 62
256
370
-1
  6
ByLayer
 10
230.0507126214498328
 20
33.4038654777514026
 30
0.0
 11
229.8062948106329486
 21
34.632867333321613
 31
0.0
  0
LINE
  5
1CA
100
AcDbEntity
100
AcDbLine
  8
Rotor Gear
 62
256
370
-1
  6
ByLayer
 10
229.8062948106329486
 20
34.632867333321613
 30
0.0
 11
228.4271230106868131
 21
34.7872257749155978
 31
0.0
  0
LINE
  5
1CB
100
AcDbEntity
100
AcDbLine
  8
Rotor Gear
 62
256
370
-1
  6
ByLayer
 10
228.4271230106868131
 20
34.7872257749155978
 30
0.0
 11
227.0228187432024072
 21
35.1386684466105166
 31
0.0
  0
LINE
  5
1CC
100
AcDbEntity
100
AcDbLine
  8
Rotor Gear
 62
256
370
-1
  6
ByLayer
 10
227.0228187432024072
 20
35.1386684466105166
 30
0.0
 11
226.888148613301297
 21
36.1605326397954556
 31
0.0
  0
LINE
  5
1CD
100
AcDbEntity
100
AcDbLine
  8
Rotor Gear
 62
256
370
-1
  6
ByLayer
 10
226.888148613301297
 20
36.1605326397954556
 30
0.0
 11
228.1538020458744143
 21
36.8634179831852933
 31
0.0
  0
LINE
  5
1CE
100
AcDbEntity
100
AcDbLine
  8
Rotor Gear
 62
256
370
-1
  6
ByLayer
 10
228.1538020458744143
 20
36.8634179831852933
 30
0.0
 11
229.44605584951114
 21
37.3694283729120826
 31
0.0
  0
LINE
  5
1CF
100
AcDbEntity
100
AcDbLine
  8
Rotor Gear
 62
256
370
-1
  6
ByLayer
 10
229.44605584951114
 20
37.3694283729120826
 30
0.0
 11
229.3641641982863746
 21
38.6200027702312596
 31
0.0
  0
LINE
  5
1D0
100
AcDbEntity
100
AcDbLine
  8
Rotor Gear
 62
256
370
-1
  6
ByLayer
 10
229.3641641982863746
 20
38.6200027702312596
 30
0.0
 11
228.0168276488113577
 21
38.9530142730907798
 31
0.0
  0
LINE
  5
1D1
100
AcDbEntity
100
AcDbLine
  8
Rotor Gear
 62
256
370
-1
  6
ByLayer
 10
228.0168276488113577
 20
38.9530142730907798
 30
0.0
 11
226.670328947202961
 21
39.4847857017844603
 31
0.0
  0
LINE
  5
1D2
100
AcDbEntity
100
AcDbLine
  8
Rotor Gear
 62
256
370
-1
  6
ByLayer
 10
226.670328947202961
 20
39.4847857017844603
 30
0.0
 11
226.670328947202961
 21
40.5152376500734945
 31
0.0
  0
LINE
  5
1D3
100
AcDbEntity
100
AcDbLine
  8
Rotor Gear
 62
256
370
-1
  6
ByLayer
 10
226.670328947202961
 20
40.5152376500734945
 30
0.0
 11
228.0168276488113577
 21
41.0470090787671893
 31
0.0
  0
LINE
  5
1D4
100
AcDbEntity
100
AcDbLine
  8
Rotor Gear
 62
256
370
-1
  6
ByLayer
 10
228.0168276488113577
 20
41.0470090787671893
 30
0.0
 11
229.3641641982863746
 21
41.3800205816266953
 31
0.0
  0
LINE
  5
1D5
100
AcDbEntity
100
AcDbLine
  8
Rotor Gear
 62
256
370
-1
  6
ByLayer
 10
229.3641641982863746
 20
41.3800205816266953
 30
0.0
 11
229.44605584951114
 21
42.6305949789459291
 31
0.0
  0
LINE
  5
1D6
100
AcDbEntity
100
AcDbLine
  8
Rotor Gear
 62
256
370
-1
  6
ByLayer
 10
229.44605584951114
 20
42.6305949789459291
 30
0.0
 11
228.1538020458744143
 21
43.1366053686726758
 31
0.0
  0
LINE
  5
1D7
100
AcDbEntity
100
AcDbLine
  8
Rotor Gear
 62
256
370
-1
  6
ByLayer
 10
228.1538020458744143
 20
43.1366053686726758
 30
0.0
 11
226.888148613301297
 21
43.8394907120625703
 31
0.0
  0
LINE
  5
1D8
100
AcDbEntity
100
AcDbLine
  8
Rotor Gear
 62
256
370
-1
  6
ByLayer
 10
226.888148613301297
 20
43.8394907120625703
 30
0.0
 11
227.0228187432024072
 21
44.861354905247417
 31
0.0
  0
LINE
  5
1D9
100
AcDbEntity
100
AcDbLine
  8
Rotor Gear
 62
256
370
-1
  6
ByLayer
 10
227.0228187432024072
 20
44.861354905247417
 30
0.0
 11
228.4271230106868131
 21
45.2127975769424353
 31
0.0
  0
LINE
  5
1DA
100
AcDbEntity
100
AcDbLine
  8
Rotor Gear
 62
256
370
-1
  6
ByLayer
 10
228.4271230106868131
 20
45.2127975769424353
 30
0.0
 11
229.8062948106329486
 21
45.367156018536356
 31
0.0
  0
LINE
  5
1DB
100
AcDbEntity
100
AcDbLine
  8
Rotor Gear
 62
256
370
-1
  6
ByLayer
 10
229.8062948106329486
 20
45.367156018536356
 30
0.0
 11
230.0507126214498328
 21
46.5961578741066091
 31
0.0
  0
LINE
  5
1DC
100
AcDbEntity
100
AcDbLine
  8
Rotor Gear
 62
256
370
-1
  6
ByLayer
 10
230.0507126214498328
 20
46.5961578741066091
 30
0.0
 11
228.8357434189440482
 21
47.2665793955965867
 31
0.0
  0
LINE
  5
1DD
100
AcDbEntity
100
AcDbLine
  8
Rotor Gear
 62
256
370
-1
  6
ByLayer
 10
228.8357434189440482
 20
47.2665793955965867
 30
0.0
 11
227.6727155893630083
 21
48.1286402492271534
 31
0.0
  0
LINE
  5
1DE
100
AcDbEntity
100
AcDbLine
  8
Rotor Gear
 62
256
370
-1
  6
ByLayer
 10
227.6727155893630083
 20
48.1286402492271534
 30
0.0
 11
227.9393345133575508
 21
49.1241148320164314
 31
0.0
  0
LINE
  5
1DF
100
AcDbEntity
100
AcDbLine
  8
Rotor Gear
 62
256
370
-1
  6
ByLayer
 10
227.9393345133575508
 20
49.1241148320164314
 30
0.0
 11
229.3775682799221158
 21
49.2891545352083185
 31
0.0
  0
LINE
  5
1E0
100
AcDbEntity
100
AcDbLine
  8
Rotor Gear
 62
256
370
-1
  6
ByLayer
 10
229.3775682799221158
 20
49.2891545352083185
 30
0.0
 11
230.7651170743043281
 21
49.2621363533839514
 31
0.0
  0
LINE
  5
1E1
100
AcDbEntity
100
AcDbLine
  8
Rotor Gear
 62
256
370
-1
  6
ByLayer
 10
230.7651170743043281
 20
49.2621363533839514
 30
0.0
 11
231.1680825660481844
 21
50.4488309733229769
 31
0.0
  0
LINE
  5
1E2
100
AcDbEntity
100
AcDbLine
  8
Rotor Gear
 62
256
370
-1
  6
ByLayer
 10
231.1680825660481844
 20
50.4488309733229769
 30
0.0
 11
230.0507126214498328
 21
51.2721452592266189
 31
0.0
  0
LINE
  5
1E3
100
AcDbEntity
100
AcDbLine
  8
Rotor Gear
 62
256
370
-1
  6
ByLayer
 10
230.0507126214498328
 20
51.2721452592266189
 30
0.0
 11
229.0102079829916022
 21
52.2787203986046976
 31
0.0
  0
LINE
  5
1E4
100
AcDbEntity
100
AcDbLine
  8
Rotor Gear
 62
256
370
-1
  6
ByLayer
 10
229.0102079829916022
 20
52.2787203986046976
 30
0.0
 11
229.4045864617465043
 21
53.2308406214581922
 31
0.0
  0
LINE
  5
1E5
100
AcDbEntity
100
AcDbLine
  8
Rotor Gear
 62
256
370
-1
  6
ByLayer
 10
229.4045864617465043
 20
53.2308406214581922
 30
0.0
 11
230.8520350706137378
 21
53.2067552782244277
 31
0.0
  0
LINE
  5
1E6
100
AcDbEntity
100
AcDbLine
  8
Rotor Gear
 62
256
370
-1
  6
ByLayer
 10
230.8520350706137378
 20
53.2067552782244277
 30
0.0
 11
232.2242948111890826
 21
52.9989890444103935
 31
0.0
  0
LINE
  5
1E7
100
AcDbEntity
100
AcDbLine
  8
Rotor Gear
 62
256
370
-1
  6
ByLayer
 10
232.2242948111890826
 20
52.9989890444103935
 30
0.0
 11
232.7784766294983569
 21
54.1226417348358098
 31
0.0
  0
LINE
  5
1E8
100
AcDbEntity
100
AcDbLine
  8
Rotor Gear
 62
256
370
-1
  6
ByLayer
 10
232.7784766294983569
 20
54.1226417348358098
 30
0.0
 11
231.7781849780623702
 21
55.0848153899736346
 31
0.0
  0
LINE
  5
1E9
100
AcDbEntity
100
AcDbLine
  8
Rotor Gear
 62
256
370
-1
  6
ByLayer
 10
231.7781849780623702
 20
55.0848153899736346
 30
0.0
 11
230.8780061281336202
 21
56.2185215126833882
 31
0.0
  0
LINE
  5
1EA
100
AcDbEntity
100
AcDbLine
  8
Rotor Gear
 62
256
370
-1
  6
ByLayer
 10
230.8780061281336202
 20
56.2185215126833882
 30
0.0
 11
231.3932321022781196
 21
57.1111604739276473
 31
0.0
  0
LINE
  5
1EB
100
AcDbEntity
100
AcDbLine
  8
Rotor Gear
 62
256
370
-1
  6
ByLayer
 10
231.3932321022781196
 20
57.1111604739276473
 30
0.0
 11
232.8251823809005998
 21
56.8983686371440101
 31
0.0
  0
LINE
  5
1EC
100
AcDbEntity
100
AcDbLine
  8
Rotor Gear
 62
256
370
-1
  6
ByLayer
 10
232.8251823809005998
 20
56.8983686371440101
 30
0.0
 11
234.1586955537490269
 21
56.5132057428068109
 31
0.0
  0
LINE
  5
1ED
100
AcDbEntity
100
AcDbLine
  8
Rotor Gear
 62
256
370
-1
  6
ByLayer
 10
234.1586955537490269
 20
56.5132057428068109
 30
0.0
 11
234.8546688377681164
 21
57.5549667820074617
 31
0.0
  0
LINE
  5
1EE
100
AcDbEntity
100
AcDbLine
  8
Rotor Gear
 62
256
370
-1
  6
ByLayer
 10
234.8546688377681164
 20
57.5549667820074617
 30
0.0
 11
233.9886287633574398
 21
58.6394543518301603
 31
0.0
  0
LINE
  5
1EF
100
AcDbEntity
100
AcDbLine
  8
Rotor Gear
 62
256
370
-1
  6
ByLayer
 10
233.9886287633574398
 20
58.6394543518301603
 30
0.0
 11
233.2440647557650095
 21
59.8810224411695415
 31
0.0
  0
LINE
  5
1F0
100
AcDbEntity
100
AcDbLine
  8
Rotor Gear
 62
256
370
-1
  6
ByLayer
 10
233.2440647557650095
 20
59.8810224411695415
 30
0.0
 11
233.871551212310095
 21
60.6986818105598118
 31
0.0
  0
LINE
  5
1F1
100
AcDbEntity
100
AcDbLine
  8
Rotor Gear
 62
256
370
-1
  6
ByLayer
 10
233.871551212310095
 20
60.6986818105598118
 30
0.0
 11
235.2634985224632374
 21
60.3007434060156058
 31
0.0
  0
LINE
  5
1F2
100
AcDbEntity
100
AcDbLine
  8
Rotor Gear
 62
256
370
-1
  6
ByLayer
 10
235.2634985224632374
 20
60.3007434060156058
 30
0.0
 11
236.5350168901026393
 21
59.7448858919731052
 31
0.0
  0
LINE
  5
1F3
100
AcDbEntity
100
AcDbLine
  8
Rotor Gear
 62
256
370
-1
  6
ByLayer
 10
236.5350168901026393
 20
59.7448858919731052
 30
0.0
 11
237.3612632724819207
 21
60.6869526825422767
 31
0.0
  0
LINE
  5
1F4
100
AcDbEntity
100
AcDbLine
  8
Rotor Gear
 62
256
370
-1
  6
ByLayer
 10
237.3612632724819207
 20
60.6869526825422767
 30
0.0
 11
236.6441359995897074
 21
61.875113721776593
 31
0.0
  0
LINE
  5
1F5
100
AcDbEntity
100
AcDbLine
  8
Rotor Gear
 62
256
370
-1
  6
ByLayer
 10
236.6441359995897074
 20
61.875113721776593
 30
0.0
 11
236.067963086655709
 21
63.2031812545495981
 31
0.0
  0
LINE
  5
1F6
100
AcDbEntity
100
AcDbLine
  8
Rotor Gear
 62
256
370
-1
  6
ByLayer
 10
236.067963086655709
 20
63.2031812545495981
 30
0.0
 11
236.7968187454504232
 21
63.9320369133442981
 31
0.0
  0
LINE
  5
1F7
100
AcDbEntity
100
AcDbLine
  8
Rotor Gear
 62
256
370
-1
  6
ByLayer
 10
236.7968187454504232
 20
63.9320369133442981
 30
0.0
 11
238.1248862782234141
 21
63.3558640004102998
 31
0.0
  0
LINE
  5
1F8
100
AcDbEntity
100
AcDbLine
  8
Rotor Gear
 62
256
370
-1
  6
ByLayer
 10
238.1248862782234141
 20
63.3558640004102998
 30
0.0
 11
239.3130473174577162
 21
62.6387367275180722
 31
0.0
  0
LINE
  5
1F9
100
AcDbEntity
100
AcDbLine
  8
Rotor Gear
 62
256
370
-1
  6
ByLayer
 10
239.3130473174577162
 20
62.6387367275180722
 30
0.0
 11
240.2551141080269019
 21
63.464983109897382
 31
0.0
  0
LINE
  5
1FA
100
AcDbEntity
100
AcDbLine
  8
Rotor Gear
 62
256
370
-1
  6
ByLayer
 10
240.2551141080269019
 20
63.464983109897382
 30
0.0
 11
239.6992565939844155
 21
64.7365014775367626
 31
0.0
  0
LINE
  5
1FB
100
AcDbEntity
100
AcDbLine
  8
Rotor Gear
 62
256
370
-1
  6
ByLayer
 10
239.6992565939844155
 20
64.7365014775367626
 30
0.0
 11
239.3013181894401953
 21
66.1284487876899334
 31
0.0
  0
LINE
  5
1FC
100
AcDbEntity
100
AcDbLine
  8
Rotor Gear
 62
256
370
-1
  6
ByLayer
 10
239.3013181894401953
 20
66.1284487876899334
 30
0.0
 11
240.1189775588304656
 21
66.7559352442349905
 31
0.0
  0
LINE
  5
1FD
100
AcDbEntity
100
AcDbLine
  8
Rotor Gear
 62
256
370
-1
  6
ByLayer
 10
240.1189775588304656
 20
66.7559352442349905
 30
0.0
 11
241.3605456481698468
 21
66.0113712366425602
 31
0.0
  0
LINE
  5
1FE
100
AcDbEntity
100
AcDbLine
  8
Rotor Gear
 62
256
370
-1
  6
ByLayer
 10
241.3605456481698468
 20
66.0113712366425602
 30
0.0
 11
242.4450332179925454
 21
65.1453311622318836
 31
0.0
  0
LINE
  5
1FF
100
AcDbEntity
100
AcDbLine
  8
Rotor Gear
 62
256
370
-1
  6
ByLayer
 10
242.4450332179925454
 20
65.1453311622318836
 30
0.0
 11
243.4867942571931962
 21
65.8413044462509731
 31
0.0
  0
LINE
  5
200
100
AcDbEntity
100
AcDbLine
  8
Rotor Gear
 62
256
370
-1
  6
ByLayer
 10
243.4867942571931962
 20
65.8413044462509731
 30
0.0
 11
243.1016313628560113
 21
67.1748176190994002
 31
0.0
  0
LINE
  5
201
100
AcDbEntity
100
AcDbLine
  8
Rotor Gear
 62
256
370
-1
  6
ByLayer
 10
243.1016313628560113
 20
67.1748176190994002
 30
0.0
 11
242.8888395260723598
 21
68.6067678977218804
 31
0.0
  0
LINE
  5
202
100
AcDbEntity
100
AcDbLine
  8
Rotor Gear
 62
256
370
-1
  6
ByLayer
 10
242.8888395260723598
 20
68.6067678977218804
 30
0.0
 11
243.7814784873166332
 21
69.1219938718663798
 31
0.0
  0
LINE
  5
203
100
AcDbEntity
100
AcDbLine
  8
Rotor Gear
 62
256
370
-1
  6
ByLayer
 10
243.7814784873166332
 20
69.1219938718663798
 30
0.0
 11
244.9151846100263583
 21
68.2218150219376298
 31
0.0
  0
LINE
  5
204
100
AcDbEntity
100
AcDbLine
  8
Rotor Gear
 62
256
370
-1
  6
ByLayer
 10
244.9151846100263583
 20
68.2218150219376298
 30
0.0
 11
245.8773582651641902
 21
67.2215233705016431
 31
0.0
  0
LINE
  5
205
100
AcDbEntity
100
AcDbLine
  8
Rotor Gear
 62
256
370
-1
  6
ByLayer
 10
245.8773582651641902
 20
67.2215233705016431
 30
0.0
 11
247.0010109555896065
 21
67.7757051888109174
 31
0.0
  0
LINE
  5
206
100
AcDbEntity
100
AcDbLine
  8
Rotor Gear
 62
256
370
-1
  6
ByLayer
 10
247.0010109555896065
 20
67.7757051888109174
 30
0.0
 11
246.7932447217755794
 21
69.1479649293862622
 31
0.0
  0
LINE
  5
207
100
AcDbEntity
100
AcDbLine
  8
Rotor Gear
 62
256
370
-1
  6
ByLayer
 10
246.7932447217755794
 20
69.1479649293862622
 30
0.0
 11
246.7691593785418434
 21
70.5954135382535242
 31
0.0
  0
LINE
  5
208
100
AcDbEntity
100
AcDbLine
  8
Rotor Gear
 62
256
370
-1
  6
ByLayer
 10
246.7691593785418434
 20
70.5954135382535242
 30
0.0
 11
247.721279601395338
 21
70.9897920170084262
 31
0.0
  0
LINE
  5
209
100
AcDbEntity
100
AcDbLine
  8
Rotor Gear
 62
256
370
-1
  6
ByLayer
 10
247.721279601395338
 20
70.9897920170084262
 30
0.0
 11
248.7278547407734095
 21
69.9492873785501672
 31
0.0
  0
LINE
  5
20A
100
AcDbEntity
100
AcDbLine
  8
Rotor Gear
 62
256
370
-1
  6
ByLayer
 10
248.7278547407734095
 20
69.9492873785501672
 30
0.0
 11
249.5511690266770586
 21
68.8319174339518156
 31
0.0
  0
LINE
  5
20B
100
AcDbEntity
100
AcDbLine
  8
Rotor Gear
 62
256
370
-1
  6
ByLayer
 10
249.5511690266770586
 20
68.8319174339518156
 30
0.0
 11
250.7378636466160344
 21
69.2348829256956719
 31
0.0
  0
LINE
  5
20C
100
AcDbEntity
100
AcDbLine
  8
Rotor Gear
 62
256
370
-1
  6
ByLayer
 10
250.7378636466160344
 20
69.2348829256956719
 30
0.0
 11
250.710845464791646
 21
70.6224317200778842
 31
0.0
  0
LINE
  5
20D
100
AcDbEntity
100
AcDbLine
  8
Rotor Gear
 62
256
370
-1
  6
ByLayer
 10
250.710845464791646
 20
70.6224317200778842
 30
0.0
 11
250.8758851679835971
 21
72.0606654866424492
 31
0.0
  0
LINE
  5
20E
100
AcDbEntity
100
AcDbLine
  8
Rotor Gear
 62
256
370
-1
  6
ByLayer
 10
250.8758851679835971
 20
72.0606654866424492
 30
0.0
 11
251.8713597507728537
 21
72.3272844106369632
 31
0.0
  0
LINE
  5
20F
100
AcDbEntity
100
AcDbLine
  8
Rotor Gear
 62
256
370
-1
  6
ByLayer
 10
251.8713597507728537
 20
72.3272844106369632
 30
0.0
 11
252.7334206044034204
 21
71.1642565810559802
 31
0.0
  0
LINE
  5
210
100
AcDbEntity
100
AcDbLine
  8
Rotor Gear
 62
256
370
-1
  6
ByLayer
 10
252.7334206044034204
 20
71.1642565810559802
 30
0.0
 11
253.4038421258934193
 21
69.9492873785501672
 31
0.0
  0
LINE
  5
211
100
AcDbEntity
100
AcDbLine
  8
Rotor Gear
 62
256
370
-1
  6
ByLayer
 10
253.4038421258934193
 20
69.9492873785501672
 30
0.0
 11
254.6328439814636511
 21
70.193705189367023
 31
0.0
  0
LINE
  5
212
100
AcDbEntity
100
AcDbLine
  8
Rotor Gear
 62
256
370
-1
  6
ByLayer
 10
254.6328439814636511
 20
70.193705189367023
 30
0.0
 11
254.7872024230576073
 21
71.5728769893132153
 31
0.0
  0
LINE
  5
213
100
AcDbEntity
100
AcDbLine
  8
Rotor Gear
 62
256
370
-1
  6
ByLayer
 10
254.7872024230576073
 20
71.5728769893132153
 30
0.0
 11
255.1386450947525475
 21
72.9771812567975928
 31
0.0
  0
LINE
  5
214
100
AcDbEntity
100
AcDbLine
  8
Rotor Gear
 62
256
370
-1
  6
ByLayer
 10
255.1386450947525475
 20
72.9771812567975928
 30
0.0
 11
256.1605092879374297
 21
73.111851386698703
 31
0.0
  0
LINE
  5
215
100
AcDbEntity
100
AcDbLine
  8
Rotor Gear
 62
256
370
-1
  6
ByLayer
 10
256.1605092879374297
 20
73.111851386698703
 30
0.0
 11
256.86339463132731
 21
71.8461979541255857
 31
0.0
  0
LINE
  5
216
100
AcDbEntity
100
AcDbLine
  8
Rotor Gear
 62
256
370
-1
  6
ByLayer
 10
256.86339463132731
 20
71.8461979541255857
 30
0.0
 11
257.3694050210540922
 21
70.55394415048886
 31
0.0
  0
LINE
  5
217
100
AcDbEntity
100
AcDbLine
  8
Rotor Gear
 62
256
370
-1
  6
ByLayer
 10
257.3694050210540922
 20
70.55394415048886
 30
0.0
 11
258.6199794183733047
 21
70.6358358017136254
 31
0.0
  0
LINE
  5
218
100
AcDbEntity
100
AcDbLine
  8
Rotor Gear
 62
256
370
-1
  6
ByLayer
 10
258.6199794183733047
 20
70.6358358017136254
 30
0.0
 11
258.9529909212327539
 21
71.9831723511886423
 31
0.0
  0
LINE
  5
219
100
AcDbEntity
100
AcDbLine
  8
Rotor Gear
 62
256
370
-1
  6
ByLayer
 10
258.9529909212327539
 20
71.9831723511886423
 30
0.0
 11
259.484762349926541
 21
73.329671052797039
 31
0.0
  0
LINE
  5
21A
100
AcDbEntity
100
AcDbLine
  8
Rotor Gear
 62
256
370
-1
  6
ByLayer
 10
259.484762349926541
 20
73.329671052797039
 30
0.0
 11
260.5152142982154828
 21
73.329671052797039
 31
0.0
  0
LINE
  5
21B
100
AcDbEntity
100
AcDbLine
  8
Rotor Gear
 62
256
370
-1
  6
ByLayer
 10
260.5152142982154828
 20
73.329671052797039
 30
0.0
 11
261.0469857269092131
 21
71.9831723511886423
 31
0.0
  0
LINE
  5
21C
100
AcDbEntity
100
AcDbLine
  8
Rotor Gear
 62
256
370
-1
  6
ByLayer
 10
261.0469857269092131
 20
71.9831723511886423
 30
0.0
 11
261.3799972297687191
 21
70.6358358017136254
 31
0.0
  0
LINE
  5
21D
100
AcDbEntity
100
AcDbLine
  8
Rotor Gear
 62
256
370
-1
  6
ByLayer
 10
261.3799972297687191
 20
70.6358358017136254
 30
0.0
 11
262.6305716270879316
 21
70.55394415048886
 31
0.0
  0
LINE
  5
21E
100
AcDbEntity
100
AcDbLine
  8
Rotor Gear
 62
256
370
-1
  6
ByLayer
 10
262.6305716270879316
 20
70.55394415048886
 30
0.0
 11
263.1365820168147138
 21
71.8461979541255857
 31
0.0
  0
LINE
  5
21F
100
AcDbEntity
100
AcDbLine
  8
Rotor Gear
 62
256
370
-1
  6
ByLayer
 10
263.1365820168147138
 20
71.8461979541255857
 30
0.0
 11
263.8394673602045941
 21
73.111851386698703
 31
0.0
  0
LINE
  5
220
100
AcDbEntity
100
AcDbLine
  8
Rotor Gear
 62
256
370
-1
  6
ByLayer
 10
263.8394673602045941
 20
73.111851386698703
 30
0.0
 11
264.8613315533895047
 21
72.9771812567975928
 31
0.0
  0
LINE
  5
221
100
AcDbEntity
100
AcDbLine
  8
Rotor Gear
 62
256
370
-1
  6
ByLayer
 10
264.8613315533895047
 20
72.9771812567975928
 30
0.0
 11
265.2127742250844449
 21
71.5728769893132153
 31
0.0
  0
LINE
  5
222
100
AcDbEntity
100
AcDbLine
  8
Rotor Gear
 62
256
370
-1
  6
ByLayer
 10
265.2127742250844449
 20
71.5728769893132153
 30
0.0
 11
265.3671326666783443
 21
70.193705189367023
 31
0.0
  0
LINE
  5
223
100
AcDbEntity
100
AcDbLine
  8
Rotor Gear
 62
256
370
-1
  6
ByLayer
 10
265.3671326666783443
 20
70.193705189367023
 30
0.0
 11
266.5961345222485761
 21
69.9492873785501672
 31
0.0
  0
LINE
  5
224
100
AcDbEntity
100
AcDbLine
  8
Rotor Gear
 62
256
370
-1
  6
ByLayer
 10
266.5961345222485761
 20
69.9492873785501672
 30
0.0
 11
267.2665560437386034
 21
71.1642565810559802
 31
0.0
  0
LINE
  5
225
100
AcDbEntity
100
AcDbLine
  8
Rotor Gear
 62
256
370
-1
  6
ByLayer
 10
267.2665560437386034
 20
71.1642565810559802
 30
0.0
 11
268.1286168973691701
 21
72.3272844106369632
 31
0.0
  0
LINE
  5
226
100
AcDbEntity
100
AcDbLine
  8
Rotor Gear
 62
256
370
-1
  6
ByLayer
 10
268.1286168973691701
 20
72.3272844106369632
 30
0.0
 11
269.1240914801584267
 21
72.0606654866424492
 31
0.0
  0
LINE
  5
227
100
AcDbEntity
100
AcDbLine
  8
Rotor Gear
 62
256
370
-1
  6
ByLayer
 10
269.1240914801584267
 20
72.0606654866424492
 30
0.0
 11
269.2891311833503778
 21
70.6224317200778842
 31
0.0
  0
LINE
  5
228
100
AcDbEntity
100
AcDbLine
  8
Rotor Gear
 62
256
370
-1
  6
ByLayer
 10
269.2891311833503778
 20
70.6224317200778842
 30
0.0
 11
269.2621130015260178
 21
69.2348829256956719
 31
0.0
  0
LINE
  5
229
100
AcDbEntity
100
AcDbLine
  8
Rotor Gear
 62
256
370
-1
  6
ByLayer
 10
269.2621130015260178
 20
69.2348829256956719
 30
0.0
 11
270.4488076214649936
 21
68.8319174339518156
 31
0.0
  0
LINE
  5
22A
100
AcDbEntity
100
AcDbLine
  8
Rotor Gear
 62
256
370
-1
  6
ByLayer
 10
270.4488076214649936
 20
68.8319174339518156
 30
0.0
 11
271.2721219073686143
 21
69.9492873785501672
 31
0.0
  0
LINE
  5
22B
100
AcDbEntity
100
AcDbLine
  8
Rotor Gear
 62
256
370
-1
  6
ByLayer
 10
271.2721219073686143
 20
69.9492873785501672
 30
0.0
 11
272.2786970467466858
 21
70.9897920170084262
 31
0.0
  0
LINE
  5
22C
100
AcDbEntity
100
AcDbLine
  8
Rotor Gear
 62
256
370
-1
  6
ByLayer
 10
272.2786970467466858
 20
70.9897920170084262
 30
0.0
 11
273.230817269600152
 21
70.5954135382534957
 31
0.0
  0
LINE
  5
22D
100
AcDbEntity
100
AcDbLine
  8
Rotor Gear
 62
256
370
-1
  6
ByLayer
 10
273.230817269600152
 20
70.5954135382534957
 30
0.0
 11
273.2067319263664444
 21
69.1479649293862622
 31
0.0
  0
LINE
  5
22E
100
AcDbEntity
100
AcDbLine
  8
Rotor Gear
 62
256
370
-1
  6
ByLayer
 10
273.2067319263664444
 20
69.1479649293862622
 30
0.0
 11
272.9989656925524173
 21
67.7757051888109174
 31
0.0
  0
LINE
  5
22F
100
AcDbEntity
100
AcDbLine
  8
Rotor Gear
 62
256
370
-1
  6
ByLayer
 10
272.9989656925524173
 20
67.7757051888109174
 30
0.0
 11
274.122618382977862
 21
67.2215233705016431
 31
0.0
  0
LINE
  5
230
100
AcDbEntity
100
AcDbLine
  8
Rotor Gear
 62
256
370
-1
  6
ByLayer
 10
274.122618382977862
 20
67.2215233705016431
 30
0.0
 11
275.0847920381156655
 21
68.2218150219376298
 31
0.0
  0
LINE
  5
231
100
AcDbEntity
100
AcDbLine
  8
Rotor Gear
 62
256
370
-1
  6
ByLayer
 10
275.0847920381156655
 20
68.2218150219376298
 30
0.0
 11
276.2184981608253906
 21
69.1219938718663798
 31
0.0
  0
LINE
  5
232
100
AcDbEntity
100
AcDbLine
  8
Rotor Gear
 62
256
370
-1
  6
ByLayer
 10
276.2184981608253906
 20
69.1219938718663798
 30
0.0
 11
277.1111371220696356
 21
68.6067678977218804
 31
0.0
  0
LINE
  5
233
100
AcDbEntity
100
AcDbLine
  8
Rotor Gear
 62
256
370
-1
  6
ByLayer
 10
277.1111371220696356
 20
68.6067678977218804
 30
0.0
 11
276.898345285286041
 21
67.1748176190994002
 31
0.0
  0
LINE
  5
234
100
AcDbEntity
100
AcDbLine
  8
Rotor Gear
 62
256
370
-1
  6
ByLayer
 10
276.898345285286041
 20
67.1748176190994002
 30
0.0
 11
276.5131823909488276
 21
65.8413044462509731
 31
0.0
  0
LINE
  5
235
100
AcDbEntity
100
AcDbLine
  8
Rotor Gear
 62
256
370
-1
  6
ByLayer
 10
276.5131823909488276
 20
65.8413044462509731
 30
0.0
 11
277.5549434301494784
 21
65.1453311622318836
 31
0.0
  0
LINE
  5
236
100
AcDbEntity
100
AcDbLine
  8
Rotor Gear
 62
256
370
-1
  6
ByLayer
 10
277.5549434301494784
 20
65.1453311622318836
 30
0.0
 11
278.6394309999722054
 21
66.0113712366425602
 31
0.0
  0
LINE
  5
237
100
AcDbEntity
100
AcDbLine
  8
Rotor Gear
 62
256
370
-1
  6
ByLayer
 10
278.6394309999722054
 20
66.0113712366425602
 30
0.0
 11
279.8809990893115582
 21
66.7559352442349905
 31
0.0
  0
LINE
  5
238
100
AcDbEntity
100
AcDbLine
  8
Rotor Gear
 62
256
370
-1
  6
ByLayer
 10
279.8809990893115582
 20
66.7559352442349905
 30
0.0
 11
280.6986584587018569
 21
66.1284487876899334
 31
0.0
  0
LINE
  5
239
100
AcDbEntity
100
AcDbLine
  8
Rotor Gear
 62
256
370
-1
  6
ByLayer
 10
280.6986584587018569
 20
66.1284487876899334
 30
0.0
 11
280.3007200541576367
 21
64.7365014775367626
 31
0.0
  0
LINE
  5
23A
100
AcDbEntity
100
AcDbLine
  8
Rotor Gear
 62
256
370
-1
  6
ByLayer
 10
280.3007200541576367
 20
64.7365014775367626
 30
0.0
 11
279.7448625401151503
 21
63.464983109897382
 31
0.0
  0
LINE
  5
23B
100
AcDbEntity
100
AcDbLine
  8
Rotor Gear
 62
256
370
-1
  6
ByLayer
 10
279.7448625401151503
 20
63.464983109897382
 30
0.0
 11
280.6869293306842792
 21
62.6387367275180722
 31
0.0
  0
LINE
  5
23C
100
AcDbEntity
100
AcDbLine
  8
Rotor Gear
 62
256
370
-1
  6
ByLayer
 10
280.6869293306842792
 20
62.6387367275180722
 30
0.0
 11
281.8750903699186097
 21
63.3558640004102998
 31
0.0
  0
LINE
  5
23D
100
AcDbEntity
100
AcDbLine
  8
Rotor Gear
 62
256
370
-1
  6
ByLayer
 10
281.8750903699186097
 20
63.3558640004102998
 30
0.0
 11
283.2031579026916006
 21
63.9320369133442981
 31
0.0
  0
LINE
  5
23E
100
AcDbEntity
100
AcDbLine
  8
Rotor Gear
 62
256
370
-1
  6
ByLayer
 10
283.2031579026916006
 20
63.9320369133442981
 30
0.0
 11
283.9320135614863148
 21
63.2031812545495981
 31
0.0
  0
LINE
  5
23F
100
AcDbEntity
100
AcDbLine
  8
Rotor Gear
 62
256
370
-1
  6
ByLayer
 10
283.9320135614863148
 20
63.2031812545495981
 30
0.0
 11
283.3558406485523165
 21
61.8751137217765788
 31
0.0
  0
LINE
  5
240
100
AcDbEntity
100
AcDbLine
  8
Rotor Gear
 62
256
370
-1
  6
ByLayer
 10
283.3558406485523165
 20
61.8751137217765788
 30
0.0
 11
282.6387133756601315
 21
60.6869526825422767
 31
0.0
  0
LINE
  5
241
100
AcDbEntity
100
AcDbLine
  8
Rotor Gear
 62
256
370
-1
  6
ByLayer
 10
282.6387133756601315
 20
60.6869526825422767
 30
0.0
 11
283.4649597580394129
 21
59.7448858919731052
 31
0.0
  0
LINE
  5
242
100
AcDbEntity
100
AcDbLine
  8
Rotor Gear
 62
256
370
-1
  6
ByLayer
 10
283.4649597580394129
 20
59.7448858919731052
 30
0.0
 11
284.7364781256787865
 21
60.3007434060155916
 31
0.0
  0
LINE
  5
243
100
AcDbEntity
100
AcDbLine
  8
Rotor Gear
 62
256
370
-1
  6
ByLayer
 10
284.7364781256787865
 20
60.3007434060155916
 30
0.0
 11
286.1284254358319004
 21
60.6986818105598118
 31
0.0
  0
LINE
  5
244
100
AcDbEntity
100
AcDbLine
  8
Rotor Gear
 62
256
370
-1
  6
ByLayer
 10
286.1284254358319004
 20
60.6986818105598118
 30
0.0
 11
286.7559118923770143
 21
59.8810224411695415
 31
0.0
  0
LINE
  5
245
100
AcDbEntity
100
AcDbLine
  8
Rotor Gear
 62
256
370
-1
  6
ByLayer
 10
286.7559118923770143
 20
59.8810224411695415
 30
0.0
 11
286.0113478847846409
 21
58.6394543518301603
 31
0.0
  0
LINE
  5
246
100
AcDbEntity
100
AcDbLine
  8
Rotor Gear
 62
256
370
-1
  6
ByLayer
 10
286.0113478847846409
 20
58.6394543518301603
 30
0.0
 11
285.145307810373879
 21
57.5549667820074475
 31
0.0
  0
LINE
  5
247
100
AcDbEntity
100
AcDbLine
  8
Rotor Gear
 62
256
370
-1
  6
ByLayer
 10
285.145307810373879
 20
57.5549667820074475
 30
0.0
 11
285.8412810943930253
 21
56.5132057428068109
 31
0.0
  0
LINE
  5
248
100
AcDbEntity
100
AcDbLine
  8
Rotor Gear
 62
256
370
-1
  6
ByLayer
 10
285.8412810943930253
 20
56.5132057428068109
 30
0.0
 11
287.1747942672414524
 21
56.8983686371439958
 31
0.0
  0
LINE
  5
249
100
AcDbEntity
100
AcDbLine
  8
Rotor Gear
 62
256
370
-1
  6
ByLayer
 10
287.1747942672414524
 20
56.8983686371439958
 30
0.0
 11
288.6067445458639327
 21
57.1111604739276473
 31
0.0
  0
LINE
  5
24A
100
AcDbEntity
100
AcDbLine
  8
Rotor Gear
 62
256
370
-1
  6
ByLayer
 10
288.6067445458639327
 20
57.1111604739276473
 30
0.0
 11
289.1219705200084036
 21
56.2185215126833882
 31
0.0
  0
LINE
  5
24B
100
AcDbEntity
100
AcDbLine
  8
Rotor Gear
 62
256
370
-1
  6
ByLayer
 10
289.1219705200084036
 20
56.2185215126833882
 30
0.0
 11
288.2217916700796536
 21
55.0848153899736346
 31
0.0
  0
LINE
  5
24C
100
AcDbEntity
100
AcDbLine
  8
Rotor Gear
 62
256
370
-1
  6
ByLayer
 10
288.2217916700796536
 20
55.0848153899736346
 30
0.0
 11
287.2215000186436669
 21
54.1226417348358098
 31
0.0
  0
LINE
  5
24D
100
AcDbEntity
100
AcDbLine
  8
Rotor Gear
 62
256
370
-1
  6
ByLayer
 10
287.2215000186436669
 20
54.1226417348358098
 30
0.0
 11
287.7756818369529128
 21
52.9989890444104077
 31
0.0
  0
LINE
  5
24E
100
AcDbEntity
100
AcDbLine
  8
Rotor Gear
 62
256
370
-1
  6
ByLayer
 10
287.7756818369529128
 20
52.9989890444104077
 30
0.0
 11
289.147941577528286
 21
53.2067552782244277
 31
0.0
  0
LINE
  5
24F
100
AcDbEntity
100
AcDbLine
  8
Rotor Gear
 62
256
370
-1
  6
ByLayer
 10
289.147941577528286
 20
53.2067552782244277
 30
0.0
 11
290.595390186395548
 21
53.2308406214581922
 31
0.0
  0
LINE
  5
250
100
AcDbEntity
100
AcDbLine
  8
Rotor Gear
 62
256
370
-1
  6
ByLayer
 10
290.595390186395548
 20
53.2308406214581922
 30
0.0
 11
290.98976866515045
 21
52.2787203986046833
 31
0.0
  0
LINE
  5
251
100
AcDbEntity
100
AcDbLine
  8
Rotor Gear
 62
256
370
-1
  6
ByLayer
 10
290.98976866515045
 20
52.2787203986046833
 30
0.0
 11
289.9492640266921626
 21
51.2721452592266118
 31
0.0
  0
LINE
  5
252
100
AcDbEntity
100
AcDbLine
  8
Rotor Gear
 62
256
370
-1
  6
ByLayer
 10
289.9492640266921626
 20
51.2721452592266118
 30
0.0
 11
288.831894082093811
 21
50.4488309733229698
 31
0.0
  0
LINE
  5
253
100
AcDbEntity
100
AcDbLine
  8
Rotor Gear
 62
256
370
-1
  6
ByLayer
 10
288.831894082093811
 20
50.4488309733229698
 30
0.0
 11
289.2348595738376957
 21
49.2621363533839514
 31
0.0
  0
LINE
  5
254
100
AcDbEntity
100
AcDbLine
  8
Rotor Gear
 62
256
370
-1
  6
ByLayer
 10
289.2348595738376957
 20
49.2621363533839514
 30
0.0
 11
290.622408368219908
 21
49.2891545352083185
 31
0.0
  0
LINE
  5
255
100
AcDbEntity
100
AcDbLine
  8
Rotor Gear
 62
256
370
-1
  6
ByLayer
 10
290.622408368219908
 20
49.2891545352083185
 30
0.0
 11
292.060642134784473
 21
49.1241148320164314
 31
0.0
  0
LINE
  5
256
100
AcDbEntity
100
AcDbLine
  8
Rotor Gear
 62
256
370
-1
  6
ByLayer
 10
292.060642134784473
 20
49.1241148320164314
 30
0.0
 11
292.3272610587790155
 21
48.1286402492271534
 31
0.0
  0
LINE
  5
257
100
AcDbEntity
100
AcDbLine
  8
Rotor Gear
 62
256
370
-1
  6
ByLayer
 10
292.3272610587790155
 20
48.1286402492271534
 30
0.0
 11
291.1642332291979756
 21
47.2665793955965867
 31
0.0
  0
LINE
  5
258
100
AcDbEntity
100
AcDbLine
  8
Rotor Gear
 62
256
370
-1
  6
ByLayer
 10
291.1642332291979756
 20
47.2665793955965867
 30
0.0
 11
289.9492640266921626
 21
46.596157874106602
 31
0.0
  0
LINE
  5
259
100
AcDbEntity
100
AcDbLine
  8
Rotor Gear
 62
256
370
-1
  6
ByLayer
 10
289.9492640266921626
 20
46.596157874106602
 30
0.0
 11
290.1936818375090752
 21
45.3671560185363489
 31
0.0
  0
LINE
  5
25A
100
AcDbEntity
100
AcDbLine
  8
Rotor Gear
 62
256
370
-1
  6
ByLayer
 10
290.1936818375090752
 20
45.3671560185363489
 30
0.0
 11
291.5728536374551823
 21
45.2127975769424282
 31
0.0
  0
LINE
  5
25B
100
AcDbEntity
100
AcDbLine
  8
Rotor Gear
 62
256
370
-1
  6
ByLayer
 10
291.5728536374551823
 20
45.2127975769424282
 30
0.0
 11
292.9771579049396451
 21
44.861354905247417
 31
0.0
  0
LINE
  5
25C
100
AcDbEntity
100
AcDbLine
  8
Rotor Gear
 62
256
370
-1
  6
ByLayer
 10
292.9771579049396451
 20
44.861354905247417
 30
0.0
 11
293.1118280348406984
 21
43.8394907120625632
 31
0.0
  0
LINE
  5
25D
100
AcDbEntity
100
AcDbLine
  8
Rotor Gear
 62
256
370
-1
  6
ByLayer
 10
293.1118280348406984
 20
43.8394907120625632
 30
0.0
 11
291.846174602267638
 21
43.1366053686726687
 31
0.0
  0
LINE
  5
25E
100
AcDbEntity
100
AcDbLine
  8
Rotor Gear
 62
256
370
-1
  6
ByLayer
 10
291.846174602267638
 20
43.1366053686726687
 30
0.0
 11
290.5539207986308838
 21
42.6305949789459291
 31
0.0
  0
LINE
  5
25F
100
AcDbEntity
100
AcDbLine
  8
Rotor Gear
 62
256
370
-1
  6
ByLayer
 10
290.5539207986308838
 20
42.6305949789459291
 30
0.0
 11
290.6358124498556208
 21
41.3800205816266882
 31
0.0
  0
LINE
  5
260
100
AcDbEntity
100
AcDbLine
  8
Motor Gear
 62
256
370
-1
  6
ByLayer
 10
235.6194406009265379
 20
80.1772697590834014
 30
0.0
 11
235.986800155742003
 21
80.2068007423925877
 31
0.0
  0
LINE
  5
261
100
AcDbEntity
100
AcDbLine
  8
Motor Gear
 62
256
370
-1
  6
ByLayer
 10
235.986800155742003
 20
80.2068007423925877
 30
0.0
 11
236.965938560419886
 21
80.0463688314095094
 31
0.0
  0
LINE
  5
262
100
AcDbEntity
100
AcDbLine
  8
Motor Gear
 62
256
370
-1
  6
ByLayer
 10
236.965938560419886
 20
80.0463688314095094
 30
0.0
 11
238.32688846796853
 21
79.476897959293396
 31
0.0
  0
LINE
  5
263
100
AcDbEntity
100
AcDbLine
  8
Motor Gear
 62
256
370
-1
  6
ByLayer
 10
238.32688846796853
 20
79.476897959293396
 30
0.0
 11
238.32688846796853
 21
78.5231020407066325
 31
0.0
  0
LINE
  5
264
100
AcDbEntity
100
AcDbLine
  8
Motor Gear
 62
256
370
-1
  6
ByLayer
 10
238.32688846796853
 20
78.5231020407066325
 30
0.0
 11
236.965938560419886
 21
77.9536311685904906
 31
0.0
  0
LINE
  5
265
100
AcDbEntity
100
AcDbLine
  8
Motor Gear
 62
256
370
-1
  6
ByLayer
 10
236.965938560419886
 20
77.9536311685904906
 30
0.0
 11
235.986800155742003
 21
77.7931992576073839
 31
0.0
  0
LINE
  5
266
100
AcDbEntity
100
AcDbLine
  8
Motor Gear
 62
256
370
-1
  6
ByLayer
 10
235.986800155742003
 20
77.7931992576073839
 30
0.0
 11
235.6194406009265379
 21
77.8227302409166413
 31
0.0
  0
LINE
  5
267
100
AcDbEntity
100
AcDbLine
  8
Motor Gear
 62
256
370
-1
  6
ByLayer
 10
235.6194406009265379
 20
77.8227302409166413
 30
0.0
 11
235.426125573052758
 21
76.3532897953096352
 31
0.0
  0
LINE
  5
268
100
AcDbEntity
100
AcDbLine
  8
Motor Gear
 62
256
370
-1
  6
ByLayer
 10
235.426125573052758
 20
76.3532897953096352
 30
0.0
 11
235.7884595248985988
 21
76.2868964743295948
 31
0.0
  0
LINE
  5
269
100
AcDbEntity
100
AcDbLine
  8
Motor Gear
 62
256
370
-1
  6
ByLayer
 10
235.7884595248985988
 20
76.2868964743295948
 30
0.0
 11
236.6926175956074871
 21
75.878486084625294
 31
0.0
  0
LINE
  5
26A
100
AcDbEntity
100
AcDbLine
  8
Motor Gear
 62
256
370
-1
  6
ByLayer
 10
236.6926175956074871
 20
75.878486084625294
 30
0.0
 11
237.8600439409594856
 21
74.9762129860875035
 31
0.0
  0
LINE
  5
26B
100
AcDbEntity
100
AcDbLine
  8
Motor Gear
 62
256
370
-1
  6
ByLayer
 10
237.8600439409594856
 20
74.9762129860875035
 30
0.0
 11
237.6131125865427691
 21
74.0546708708477155
 31
0.0
  0
LINE
  5
26C
100
AcDbEntity
100
AcDbLine
  8
Motor Gear
 62
256
370
-1
  6
ByLayer
 10
237.6131125865427691
 20
74.0546708708477155
 30
0.0
 11
236.1510027531823539
 21
73.8569580693180257
 31
0.0
  0
LINE
  5
26D
100
AcDbEntity
100
AcDbLine
  8
Motor Gear
 62
256
370
-1
  6
ByLayer
 10
236.1510027531823539
 20
73.8569580693180257
 30
0.0
 11
235.1636958883912598
 21
73.9553959172070989
 31
0.0
  0
LINE
  5
26E
100
AcDbEntity
100
AcDbLine
  8
Motor Gear
 62
256
370
-1
  6
ByLayer
 10
235.1636958883912598
 20
73.9553959172070989
 30
0.0
 11
234.8166517324673066
 21
74.0789662326343858
 31
0.0
  0
LINE
  5
26F
100
AcDbEntity
100
AcDbLine
  8
Motor Gear
 62
256
370
-1
  6
ByLayer
 10
234.8166517324673066
 20
74.0789662326343858
 30
0.0
 11
234.2494843853980626
 21
72.7098478649725735
 31
0.0
  0
LINE
  5
270
100
AcDbEntity
100
AcDbLine
  8
Motor Gear
 62
256
370
-1
  6
ByLayer
 10
234.2494843853980626
 20
72.7098478649725735
 30
0.0
 11
234.5822866118197112
 21
72.5517194790363931
 31
0.0
  0
LINE
  5
271
100
AcDbEntity
100
AcDbLine
  8
Motor Gear
 62
256
370
-1
  6
ByLayer
 10
234.5822866118197112
 20
72.5517194790363931
 30
0.0
 11
235.3500988568942489
 21
71.9233959167397217
 31
0.0
  0
LINE
  5
272
100
AcDbEntity
100
AcDbLine
  8
Motor Gear
 62
256
370
-1
  6
ByLayer
 10
235.3500988568942489
 20
71.9233959167397217
 30
0.0
 11
236.2439942188809141
 21
70.7496860834456669
 31
0.0
  0
LINE
  5
273
100
AcDbEntity
100
AcDbLine
  8
Motor Gear
 62
256
370
-1
  6
ByLayer
 10
236.2439942188809141
 20
70.7496860834456669
 30
0.0
 11
235.7670962595875608
 21
69.9234404431814198
 31
0.0
  0
LINE
  5
274
100
AcDbEntity
100
AcDbLine
  8
Motor Gear
 62
256
370
-1
  6
ByLayer
 10
235.7670962595875608
 20
69.9234404431814198
 30
0.0
 11
234.3037300254847821
 21
70.1108897938738806
 31
0.0
  0
LINE
  5
275
100
AcDbEntity
100
AcDbLine
  8
Motor Gear
 62
256
370
-1
  6
ByLayer
 10
234.3037300254847821
 20
70.1108897938738806
 30
0.0
 11
233.3754858694271093
 21
70.4614946177022006
 31
0.0
  0
LINE
  5
276
100
AcDbEntity
100
AcDbLine
  8
Motor Gear
 62
256
370
-1
  6
ByLayer
 10
233.3754858694271093
 20
70.4614946177022006
 30
0.0
 11
233.0722146263146897
 21
70.6707265286964912
 31
0.0
  0
LINE
  5
277
100
AcDbEntity
100
AcDbLine
  8
Motor Gear
 62
256
370
-1
  6
ByLayer
 10
233.0722146263146897
 20
70.6707265286964912
 30
0.0
 11
232.1699415277769276
 21
69.4949231889084587
 31
0.0
  0
LINE
  5
278
100
AcDbEntity
100
AcDbLine
  8
Motor Gear
 62
256
370
-1
  6
ByLayer
 10
232.1699415277769276
 20
69.4949231889084587
 30
0.0
 11
232.4505923627208972
 21
69.2561602946049391
 31
0.0
  0
LINE
  5
279
100
AcDbEntity
100
AcDbLine
  8
Motor Gear
 62
256
370
-1
  6
ByLayer
 10
232.4505923627208972
 20
69.2561602946049391
 30
0.0
 11
233.0294888378076337
 21
68.4504393296700897
 31
0.0
  0
LINE
  5
27A
100
AcDbEntity
100
AcDbLine
  8
Motor Gear
 62
256
370
-1
  6
ByLayer
 10
233.0294888378076337
 20
68.4504393296700897
 30
0.0
 11
233.5893255726302868
 21
67.0853001827884015
 31
0.0
  0
LINE
  5
27B
100
AcDbEntity
100
AcDbLine
  8
Motor Gear
 62
256
370
-1
  6
ByLayer
 10
233.5893255726302868
 20
67.0853001827884015
 30
0.0
 11
232.9147148118072153
 21
66.4106894219653299
 31
0.0
  0
LINE
  5
27C
100
AcDbEntity
100
AcDbLine
  8
Motor Gear
 62
256
370
-1
  6
ByLayer
 10
232.9147148118072153
 20
66.4106894219653299
 30
0.0
 11
231.549575664925527
 21
66.9705261567879404
 31
0.0
  0
LINE
  5
27D
100
AcDbEntity
100
AcDbLine
  8
Motor Gear
 62
256
370
-1
  6
ByLayer
 10
231.549575664925527
 20
66.9705261567879404
 30
0.0
 11
230.7438546999906919
 21
67.5494226318747479
 31
0.0
  0
LINE
  5
27E
100
AcDbEntity
100
AcDbLine
  8
Motor Gear
 62
256
370
-1
  6
ByLayer
 10
230.7438546999906919
 20
67.5494226318747479
 30
0.0
 11
230.5050918056871296
 21
67.8300734668186891
 31
0.0
  0
LINE
  5
27F
100
AcDbEntity
100
AcDbLine
  8
Motor Gear
 62
256
370
-1
  6
ByLayer
 10
230.5050918056871296
 20
67.8300734668186891
 30
0.0
 11
229.3292884658990829
 21
66.9278003682808986
 31
0.0
  0
LINE
  5
280
100
AcDbEntity
100
AcDbLine
  8
Motor Gear
 62
256
370
-1
  6
ByLayer
 10
229.3292884658990829
 20
66.9278003682808986
 30
0.0
 11
229.5385203768933877
 21
66.624529125168479
 31
0.0
  0
LINE
  5
281
100
AcDbEntity
100
AcDbLine
  8
Motor Gear
 62
256
370
-1
  6
ByLayer
 10
229.5385203768933877
 20
66.624529125168479
 30
0.0
 11
229.8891252007217076
 21
65.6962849691108346
 31
0.0
  0
LINE
  5
282
100
AcDbEntity
100
AcDbLine
  8
Motor Gear
 62
256
370
-1
  6
ByLayer
 10
229.8891252007217076
 20
65.6962849691108346
 30
0.0
 11
230.0765745514141827
 21
64.2329187350080275
 31
0.0
  0
LINE
  5
283
100
AcDbEntity
100
AcDbLine
  8
Motor Gear
 62
256
370
-1
  6
ByLayer
 10
230.0765745514141827
 20
64.2329187350080275
 30
0.0
 11
229.2503289111499214
 21
63.7560207757146458
 31
0.0
  0
LINE
  5
284
100
AcDbEntity
100
AcDbLine
  8
Motor Gear
 62
256
370
-1
  6
ByLayer
 10
229.2503289111499214
 20
63.7560207757146458
 30
0.0
 11
228.0766190778558666
 21
64.6499161377013252
 31
0.0
  0
LINE
  5
285
100
AcDbEntity
100
AcDbLine
  8
Motor Gear
 62
256
370
-1
  6
ByLayer
 10
228.0766190778558666
 20
64.6499161377013252
 30
0.0
 11
227.4482955155592094
 21
65.4177283827758771
 31
0.0
  0
LINE
  5
286
100
AcDbEntity
100
AcDbLine
  8
Motor Gear
 62
256
370
-1
  6
ByLayer
 10
227.4482955155592094
 20
65.4177283827758771
 30
0.0
 11
227.290167129623029
 21
65.7505306091975257
 31
0.0
  0
LINE
  5
287
100
AcDbEntity
100
AcDbLine
  8
Motor Gear
 62
256
370
-1
  6
ByLayer
 10
227.290167129623029
 20
65.7505306091975257
 30
0.0
 11
225.9210487619612024
 21
65.1833632621283243
 31
0.0
  0
LINE
  5
288
100
AcDbEntity
100
AcDbLine
  8
Motor Gear
 62
256
370
-1
  6
ByLayer
 10
225.9210487619612024
 20
65.1833632621283243
 30
0.0
 11
226.0446190773884894
 21
64.8363191062043285
 31
0.0
  0
LINE
  5
289
100
AcDbEntity
100
AcDbLine
  8
Motor Gear
 62
256
370
-1
  6
ByLayer
 10
226.0446190773884894
 20
64.8363191062043285
 30
0.0
 11
226.1430569252775626
 21
63.8490122414132344
 31
0.0
  0
LINE
  5
28A
100
AcDbEntity
100
AcDbLine
  8
Motor Gear
 62
256
370
-1
  6
ByLayer
 10
226.1430569252775626
 20
63.8490122414132344
 30
0.0
 11
225.9453441237478444
 21
62.3869024080528476
 31
0.0
  0
LINE
  5
28B
100
AcDbEntity
100
AcDbLine
  8
Motor Gear
 62
256
370
-1
  6
ByLayer
 10
225.9453441237478444
 20
62.3869024080528476
 30
0.0
 11
225.0238020085080848
 21
62.1399710536361169
 31
0.0
  0
LINE
  5
28C
100
AcDbEntity
100
AcDbLine
  8
Motor Gear
 62
256
370
-1
  6
ByLayer
 10
225.0238020085080848
 20
62.1399710536361169
 30
0.0
 11
224.1215289099702943
 21
63.3073973989881154
 31
0.0
  0
LINE
  5
28D
100
AcDbEntity
100
AcDbLine
  8
Motor Gear
 62
256
370
-1
  6
ByLayer
 10
224.1215289099702943
 20
63.3073973989881154
 30
0.0
 11
223.7131185202659935
 21
64.2115554696969895
 31
0.0
  0
LINE
  5
28E
100
AcDbEntity
100
AcDbLine
  8
Motor Gear
 62
256
370
-1
  6
ByLayer
 10
223.7131185202659935
 20
64.2115554696969895
 30
0.0
 11
223.6467251992859815
 21
64.5738894215428445
 31
0.0
  0
LINE
  5
28F
100
AcDbEntity
100
AcDbLine
  8
Motor Gear
 62
256
370
-1
  6
ByLayer
 10
223.6467251992859815
 20
64.5738894215428445
 30
0.0
 11
222.1772847536790039
 21
64.3805743936690789
 31
0.0
  0
LINE
  5
290
100
AcDbEntity
100
AcDbLine
  8
Motor Gear
 62
256
370
-1
  6
ByLayer
 10
222.1772847536790039
 20
64.3805743936690789
 30
0.0
 11
222.206815736988176
 21
64.0132148388536137
 31
0.0
  0
LINE
  5
291
100
AcDbEntity
100
AcDbLine
  8
Motor Gear
 62
256
370
-1
  6
ByLayer
 10
222.206815736988176
 20
64.0132148388536137
 30
0.0
 11
222.0463838260050977
 21
63.0340764341757307
 31
0.0
  0
LINE
  5
292
100
AcDbEntity
100
AcDbLine
  8
Motor Gear
 62
256
370
-1
  6
ByLayer
 10
222.0463838260050977
 20
63.0340764341757307
 30
0.0
 11
221.4769129538889558
 21
61.6731265266270725
 31
0.0
  0
LINE
  5
293
100
AcDbEntity
100
AcDbLine
  8
Motor Gear
 62
256
370
-1
  6
ByLayer
 10
221.4769129538889558
 20
61.6731265266270725
 30
0.0
 11
220.5231170353022492
 21
61.6731265266270725
 31
0.0
  0
LINE
  5
294
100
AcDbEntity
100
AcDbLine
  8
Motor Gear
 62
256
370
-1
  6
ByLayer
 10
220.5231170353022492
 20
61.6731265266270725
 30
0.0
 11
219.9536461631861073
 21
63.0340764341757307
 31
0.0
  0
LINE
  5
295
100
AcDbEntity
100
AcDbLine
  8
Motor Gear
 62
256
370
-1
  6
ByLayer
 10
219.9536461631861073
 20
63.0340764341757307
 30
0.0
 11
219.793214252203029
 21
64.0132148388536137
 31
0.0
  0
LINE
  5
296
100
AcDbEntity
100
AcDbLine
  8
Motor Gear
 62
256
370
-1
  6
ByLayer
 10
219.793214252203029
 20
64.0132148388536137
 30
0.0
 11
219.8227452355122011
 21
64.3805743936690789
 31
0.0
  0
LINE
  5
297
100
AcDbEntity
100
AcDbLine
  8
Motor Gear
 62
256
370
-1
  6
ByLayer
 10
219.8227452355122011
 20
64.3805743936690789
 30
0.0
 11
218.3533047899052235
 21
64.5738894215428445
 31
0.0
  0
LINE
  5
298
100
AcDbEntity
100
AcDbLine
  8
Motor Gear
 62
256
370
-1
  6
ByLayer
 10
218.3533047899052235
 20
64.5738894215428445
 30
0.0
 11
218.2869114689252115
 21
64.2115554696969895
 31
0.0
  0
LINE
  5
299
100
AcDbEntity
100
AcDbLine
  8
Motor Gear
 62
256
370
-1
  6
ByLayer
 10
218.2869114689252115
 20
64.2115554696969895
 30
0.0
 11
217.8785010792208823
 21
63.3073973989881154
 31
0.0
  0
LINE
  5
29A
100
AcDbEntity
100
AcDbLine
  8
Motor Gear
 62
256
370
-1
  6
ByLayer
 10
217.8785010792208823
 20
63.3073973989881154
 30
0.0
 11
216.9762279806831202
 21
62.1399710536361312
 31
0.0
  0
LINE
  5
29B
100
AcDbEntity
100
AcDbLine
  8
Motor Gear
 62
256
370
-1
  6
ByLayer
 10
216.9762279806831202
 20
62.1399710536361312
 30
0.0
 11
216.0546858654433322
 21
62.3869024080528476
 31
0.0
  0
LINE
  5
29C
100
AcDbEntity
100
AcDbLine
  8
Motor Gear
 62
256
370
-1
  6
ByLayer
 10
216.0546858654433322
 20
62.3869024080528476
 30
0.0
 11
215.8569730639136139
 21
63.8490122414132344
 31
0.0
  0
LINE
  5
29D
100
AcDbEntity
100
AcDbLine
  8
Motor Gear
 62
256
370
-1
  6
ByLayer
 10
215.8569730639136139
 20
63.8490122414132344
 30
0.0
 11
215.9554109118026872
 21
64.8363191062043427
 31
0.0
  0
LINE
  5
29E
100
AcDbEntity
100
AcDbLine
  8
Motor Gear
 62
256
370
-1
  6
ByLayer
 10
215.9554109118026872
 20
64.8363191062043427
 30
0.0
 11
216.0789812272299741
 21
65.1833632621283243
 31
0.0
  0
LINE
  5
29F
100
AcDbEntity
100
AcDbLine
  8
Motor Gear
 62
256
370
-1
  6
ByLayer
 10
216.0789812272299741
 20
65.1833632621283243
 30
0.0
 11
214.709862859568176
 21
65.7505306091975257
 31
0.0
  0
LINE
  5
2A0
100
AcDbEntity
100
AcDbLine
  8
Motor Gear
 62
256
370
-1
  6
ByLayer
 10
214.709862859568176
 20
65.7505306091975257
 30
0.0
 11
214.5517344736319956
 21
65.4177283827758771
 31
0.0
  0
LINE
  5
2A1
100
AcDbEntity
100
AcDbLine
  8
Motor Gear
 62
256
370
-1
  6
ByLayer
 10
214.5517344736319956
 20
65.4177283827758771
 30
0.0
 11
213.9234109113353099
 21
64.6499161377013252
 31
0.0
  0
LINE
  5
2A2
100
AcDbEntity
100
AcDbLine
  8
Motor Gear
 62
256
370
-1
  6
ByLayer
 10
213.9234109113353099
 20
64.6499161377013252
 30
0.0
 11
212.7497010780412552
 21
63.7560207757146458
 31
0.0
  0
LINE
  5
2A3
100
AcDbEntity
100
AcDbLine
  8
Motor Gear
 62
256
370
-1
  6
ByLayer
 10
212.7497010780412552
 20
63.7560207757146458
 30
0.0
 11
211.9234554377770223
 21
64.2329187350080275
 31
0.0
  0
LINE
  5
2A4
100
AcDbEntity
100
AcDbLine
  8
Motor Gear
 62
256
370
-1
  6
ByLayer
 10
211.9234554377770223
 20
64.2329187350080275
 30
0.0
 11
212.1109047884694689
 21
65.6962849691108346
 31
0.0
  0
LINE
  5
2A5
100
AcDbEntity
100
AcDbLine
  8
Motor Gear
 62
256
370
-1
  6
ByLayer
 10
212.1109047884694689
 20
65.6962849691108346
 30
0.0
 11
212.4615096122977889
 21
66.624529125168479
 31
0.0
  0
LINE
  5
2A6
100
AcDbEntity
100
AcDbLine
  8
Motor Gear
 62
256
370
-1
  6
ByLayer
 10
212.4615096122977889
 20
66.624529125168479
 30
0.0
 11
212.6707415232921221
 21
66.9278003682808986
 31
0.0
  0
LINE
  5
2A7
100
AcDbEntity
100
AcDbLine
  8
Motor Gear
 62
256
370
-1
  6
ByLayer
 10
212.6707415232921221
 20
66.9278003682808986
 30
0.0
 11
211.4949381835040469
 21
67.8300734668186891
 31
0.0
  0
LINE
  5
2A8
100
AcDbEntity
100
AcDbLine
  8
Motor Gear
 62
256
370
-1
  6
ByLayer
 10
211.4949381835040469
 20
67.8300734668186891
 30
0.0
 11
211.2561752892005131
 21
67.5494226318747479
 31
0.0
  0
LINE
  5
2A9
100
AcDbEntity
100
AcDbLine
  8
Motor Gear
 62
256
370
-1
  6
ByLayer
 10
211.2561752892005131
 20
67.5494226318747479
 30
0.0
 11
210.450454324265678
 21
66.9705261567879546
 31
0.0
  0
LINE
  5
2AA
100
AcDbEntity
100
AcDbLine
  8
Motor Gear
 62
256
370
-1
  6
ByLayer
 10
210.450454324265678
 20
66.9705261567879546
 30
0.0
 11
209.0853151773839897
 21
66.4106894219653299
 31
0.0
  0
LINE
  5
2AB
100
AcDbEntity
100
AcDbLine
  8
Motor Gear
 62
256
370
-1
  6
ByLayer
 10
209.0853151773839897
 20
66.4106894219653299
 30
0.0
 11
208.4107044165608897
 21
67.0853001827884015
 31
0.0
  0
LINE
  5
2AC
100
AcDbEntity
100
AcDbLine
  8
Motor Gear
 62
256
370
-1
  6
ByLayer
 10
208.4107044165608897
 20
67.0853001827884015
 30
0.0
 11
208.9705411513835429
 21
68.4504393296700897
 31
0.0
  0
LINE
  5
2AD
100
AcDbEntity
100
AcDbLine
  8
Motor Gear
 62
256
370
-1
  6
ByLayer
 10
208.9705411513835429
 20
68.4504393296700897
 30
0.0
 11
209.5494376264703078
 21
69.2561602946049533
 31
0.0
  0
LINE
  5
2AE
100
AcDbEntity
100
AcDbLine
  8
Motor Gear
 62
256
370
-1
  6
ByLayer
 10
209.5494376264703078
 20
69.2561602946049533
 30
0.0
 11
209.8300884614142774
 21
69.4949231889084587
 31
0.0
  0
LINE
  5
2AF
100
AcDbEntity
100
AcDbLine
  8
Motor Gear
 62
256
370
-1
  6
ByLayer
 10
209.8300884614142774
 20
69.4949231889084587
 30
0.0
 11
208.9278153628765153
 21
70.6707265286965054
 31
0.0
  0
LINE
  5
2B0
100
AcDbEntity
100
AcDbLine
  8
Motor Gear
 62
256
370
-1
  6
ByLayer
 10
208.9278153628765153
 20
70.6707265286965054
 30
0.0
 11
208.6245441197640673
 21
70.461494617702229
 31
0.0
  0
LINE
  5
2B1
100
AcDbEntity
100
AcDbLine
  8
Motor Gear
 62
256
370
-1
  6
ByLayer
 10
208.6245441197640673
 20
70.461494617702229
 30
0.0
 11
207.6962999637064229
 21
70.1108897938738949
 31
0.0
  0
LINE
  5
2B2
100
AcDbEntity
100
AcDbLine
  8
Motor Gear
 62
256
370
-1
  6
ByLayer
 10
207.6962999637064229
 20
70.1108897938738949
 30
0.0
 11
206.2329337296036158
 21
69.923440443181434
 31
0.0
  0
LINE
  5
2B3
100
AcDbEntity
100
AcDbLine
  8
Motor Gear
 62
256
370
-1
  6
ByLayer
 10
206.2329337296036158
 20
69.923440443181434
 30
0.0
 11
205.7560357703102625
 21
70.7496860834456669
 31
0.0
  0
LINE
  5
2B4
100
AcDbEntity
100
AcDbLine
  8
Motor Gear
 62
256
370
-1
  6
ByLayer
 10
205.7560357703102625
 20
70.7496860834456669
 30
0.0
 11
206.6499311322969277
 21
71.9233959167397217
 31
0.0
  0
LINE
  5
2B5
100
AcDbEntity
100
AcDbLine
  8
Motor Gear
 62
256
370
-1
  6
ByLayer
 10
206.6499311322969277
 20
71.9233959167397217
 30
0.0
 11
207.4177433773714938
 21
72.5517194790363931
 31
0.0
  0
LINE
  5
2B6
100
AcDbEntity
100
AcDbLine
  8
Motor Gear
 62
256
370
-1
  6
ByLayer
 10
207.4177433773714938
 20
72.5517194790363931
 30
0.0
 11
207.7505456037931424
 21
72.7098478649725735
 31
0.0
  0
LINE
  5
2B7
100
AcDbEntity
100
AcDbLine
  8
Motor Gear
 62
256
370
-1
  6
ByLayer
 10
207.7505456037931424
 20
72.7098478649725735
 30
0.0
 11
207.1833782567238984
 21
74.0789662326343858
 31
0.0
  0
LINE
  5
2B8
100
AcDbEntity
100
AcDbLine
  8
Motor Gear
 62
256
370
-1
  6
ByLayer
 10
207.1833782567238984
 20
74.0789662326343858
 30
0.0
 11
206.8363341007999168
 21
73.9553959172071131
 31
0.0
  0
LINE
  5
2B9
100
AcDbEntity
100
AcDbLine
  8
Motor Gear
 62
256
370
-1
  6
ByLayer
 10
206.8363341007999168
 20
73.9553959172071131
 30
0.0
 11
205.8490272360088227
 21
73.8569580693180257
 31
0.0
  0
LINE
  5
2BA
100
AcDbEntity
100
AcDbLine
  8
Motor Gear
 62
256
370
-1
  6
ByLayer
 10
205.8490272360088227
 20
73.8569580693180257
 30
0.0
 11
204.3869174026484359
 21
74.0546708708477155
 31
0.0
  0
LINE
  5
2BB
100
AcDbEntity
100
AcDbLine
  8
Motor Gear
 62
256
370
-1
  6
ByLayer
 10
204.3869174026484359
 20
74.0546708708477155
 30
0.0
 11
204.1399860482317195
 21
74.9762129860875319
 31
0.0
  0
LINE
  5
2BC
100
AcDbEntity
100
AcDbLine
  8
Motor Gear
 62
256
370
-1
  6
ByLayer
 10
204.1399860482317195
 20
74.9762129860875319
 30
0.0
 11
205.3074123935837179
 21
75.8784860846253082
 31
0.0
  0
LINE
  5
2BD
100
AcDbEntity
100
AcDbLine
  8
Motor Gear
 62
256
370
-1
  6
ByLayer
 10
205.3074123935837179
 20
75.8784860846253082
 30
0.0
 11
206.2115704642926062
 21
76.2868964743295948
 31
0.0
  0
LINE
  5
2BE
100
AcDbEntity
100
AcDbLine
  8
Motor Gear
 62
256
370
-1
  6
ByLayer
 10
206.2115704642926062
 20
76.2868964743295948
 30
0.0
 11
206.573904416138447
 21
76.3532897953096352
 31
0.0
  0
LINE
  5
2BF
100
AcDbEntity
100
AcDbLine
  8
Motor Gear
 62
256
370
-1
  6
ByLayer
 10
206.573904416138447
 20
76.3532897953096352
 30
0.0
 11
206.3805893882646671
 21
77.8227302409166413
 31
0.0
  0
LINE
  5
2C0
100
AcDbEntity
100
AcDbLine
  8
Motor Gear
 62
256
370
-1
  6
ByLayer
 10
206.3805893882646671
 20
77.8227302409166413
 30
0.0
 11
206.013229833449202
 21
77.7931992576073981
 31
0.0
  0
LINE
  5
2C1
100
AcDbEntity
100
AcDbLine
  8
Motor Gear
 62
256
370
-1
  6
ByLayer
 10
206.013229833449202
 20
77.7931992576073981
 30
0.0
 11
205.0340914287712906
 21
77.9536311685905048
 31
0.0
  0
LINE
  5
2C2
100
AcDbEntity
100
AcDbLine
  8
Motor Gear
 62
256
370
-1
  6
ByLayer
 10
205.0340914287712906
 20
77.9536311685905048
 30
0.0
 11
203.673141521222675
 21
78.5231020407066325
 31
0.0
  0
LINE
  5
2C3
100
AcDbEntity
100
AcDbLine
  8
Motor Gear
 62
256
370
-1
  6
ByLayer
 10
203.673141521222675
 20
78.5231020407066325
 30
0.0
 11
203.673141521222675
 21
79.476897959293396
 31
0.0
  0
LINE
  5
2C4
100
AcDbEntity
100
AcDbLine
  8
Motor Gear
 62
256
370
-1
  6
ByLayer
 10
203.673141521222675
 20
79.476897959293396
 30
0.0
 11
205.0340914287712906
 21
80.0463688314095094
 31
0.0
  0
LINE
  5
2C5
100
AcDbEntity
100
AcDbLine
  8
Motor Gear
 62
256
370
-1
  6
ByLayer
 10
205.0340914287712906
 20
80.0463688314095094
 30
0.0
 11
206.013229833449202
 21
80.2068007423925877
 31
0.0
  0
LINE
  5
2C6
100
AcDbEntity
100
AcDbLine
  8
Motor Gear
 62
256
370
-1
  6
ByLayer
 10
206.013229833449202
 20
80.2068007423925877
 30
0.0
 11
206.3805893882646671
 21
80.1772697590834156
 31
0.0
  0
LINE
  5
2C7
100
AcDbEntity
100
AcDbLine
  8
Motor Gear
 62
256
370
-1
  6
ByLayer
 10
206.3805893882646671
 20
80.1772697590834156
 30
0.0
 11
206.573904416138447
 21
81.6467102046904216
 31
0.0
  0
LINE
  5
2C8
100
AcDbEntity
100
AcDbLine
  8
Motor Gear
 62
256
370
-1
  6
ByLayer
 10
206.573904416138447
 20
81.6467102046904216
 30
0.0
 11
206.2115704642926062
 21
81.7131035256704195
 31
0.0
  0
LINE
  5
2C9
100
AcDbEntity
100
AcDbLine
  8
Motor Gear
 62
256
370
-1
  6
ByLayer
 10
206.2115704642926062
 20
81.7131035256704195
 30
0.0
 11
205.3074123935837179
 21
82.121513915374706
 31
0.0
  0
LINE
  5
2CA
100
AcDbEntity
100
AcDbLine
  8
Motor Gear
 62
256
370
-1
  6
ByLayer
 10
205.3074123935837179
 20
82.121513915374706
 30
0.0
 11
204.1399860482317195
 21
83.0237870139124681
 31
0.0
  0
LINE
  5
2CB
100
AcDbEntity
100
AcDbLine
  8
Motor Gear
 62
256
370
-1
  6
ByLayer
 10
204.1399860482317195
 20
83.0237870139124681
 30
0.0
 11
204.3869174026484359
 21
83.9453291291522845
 31
0.0
  0
LINE
  5
2CC
100
AcDbEntity
100
AcDbLine
  8
Motor Gear
 62
256
370
-1
  6
ByLayer
 10
204.3869174026484359
 20
83.9453291291522845
 30
0.0
 11
205.8490272360088227
 21
84.1430419306819743
 31
0.0
  0
LINE
  5
2CD
100
AcDbEntity
100
AcDbLine
  8
Motor Gear
 62
256
370
-1
  6
ByLayer
 10
205.8490272360088227
 20
84.1430419306819743
 30
0.0
 11
206.8363341007999168
 21
84.0446040827929011
 31
0.0
  0
LINE
  5
2CE
100
AcDbEntity
100
AcDbLine
  8
Motor Gear
 62
256
370
-1
  6
ByLayer
 10
206.8363341007999168
 20
84.0446040827929011
 30
0.0
 11
207.1833782567238984
 21
83.9210337673656284
 31
0.0
  0
LINE
  5
2CF
100
AcDbEntity
100
AcDbLine
  8
Motor Gear
 62
256
370
-1
  6
ByLayer
 10
207.1833782567238984
 20
83.9210337673656284
 30
0.0
 11
207.7505456037931424
 21
85.2901521350274407
 31
0.0
  0
LINE
  5
2D0
100
AcDbEntity
100
AcDbLine
  8
Motor Gear
 62
256
370
-1
  6
ByLayer
 10
207.7505456037931424
 20
85.2901521350274407
 30
0.0
 11
207.4177433773714938
 21
85.4482805209636211
 31
0.0
  0
LINE
  5
2D1
100
AcDbEntity
100
AcDbLine
  8
Motor Gear
 62
256
370
-1
  6
ByLayer
 10
207.4177433773714938
 20
85.4482805209636211
 30
0.0
 11
206.6499311322969277
 21
86.0766040832602783
 31
0.0
  0
LINE
  5
2D2
100
AcDbEntity
100
AcDbLine
  8
Motor Gear
 62
256
370
-1
  6
ByLayer
 10
206.6499311322969277
 20
86.0766040832602783
 30
0.0
 11
205.7560357703102625
 21
87.2503139165543615
 31
0.0
  0
LINE
  5
2D3
100
AcDbEntity
100
AcDbLine
  8
Motor Gear
 62
256
370
-1
  6
ByLayer
 10
205.7560357703102625
 20
87.2503139165543615
 30
0.0
 11
206.2329337296036158
 21
88.0765595568185944
 31
0.0
  0
LINE
  5
2D4
100
AcDbEntity
100
AcDbLine
  8
Motor Gear
 62
256
370
-1
  6
ByLayer
 10
206.2329337296036158
 20
88.0765595568185944
 30
0.0
 11
207.6962999637064229
 21
87.8891102061261194
 31
0.0
  0
LINE
  5
2D5
100
AcDbEntity
100
AcDbLine
  8
Motor Gear
 62
256
370
-1
  6
ByLayer
 10
207.6962999637064229
 20
87.8891102061261194
 30
0.0
 11
208.6245441197640673
 21
87.5385053822977994
 31
0.0
  0
LINE
  5
2D6
100
AcDbEntity
100
AcDbLine
  8
Motor Gear
 62
256
370
-1
  6
ByLayer
 10
208.6245441197640673
 20
87.5385053822977994
 30
0.0
 11
208.9278153628765153
 21
87.3292734713035088
 31
0.0
  0
LINE
  5
2D7
100
AcDbEntity
100
AcDbLine
  8
Motor Gear
 62
256
370
-1
  6
ByLayer
 10
208.9278153628765153
 20
87.3292734713035088
 30
0.0
 11
209.8300884614142774
 21
88.5050768110915413
 31
0.0
  0
LINE
  5
2D8
100
AcDbEntity
100
AcDbLine
  8
Motor Gear
 62
256
370
-1
  6
ByLayer
 10
209.8300884614142774
 20
88.5050768110915413
 30
0.0
 11
209.5494376264703078
 21
88.7438397053950752
 31
0.0
  0
LINE
  5
2D9
100
AcDbEntity
100
AcDbLine
  8
Motor Gear
 62
256
370
-1
  6
ByLayer
 10
209.5494376264703078
 20
88.7438397053950752
 30
0.0
 11
208.9705411513835713
 21
89.5495606703299387
 31
0.0
  0
LINE
  5
2DA
100
AcDbEntity
100
AcDbLine
  8
Motor Gear
 62
256
370
-1
  6
ByLayer
 10
208.9705411513835713
 20
89.5495606703299387
 30
0.0
 11
208.4107044165608897
 21
90.9146998172115985
 31
0.0
  0
LINE
  5
2DB
100
AcDbEntity
100
AcDbLine
  8
Motor Gear
 62
256
370
-1
  6
ByLayer
 10
208.4107044165608897
 20
90.9146998172115985
 30
0.0
 11
209.0853151773839897
 21
91.5893105780346701
 31
0.0
  0
LINE
  5
2DC
100
AcDbEntity
100
AcDbLine
  8
Motor Gear
 62
256
370
-1
  6
ByLayer
 10
209.0853151773839897
 20
91.5893105780346701
 30
0.0
 11
210.450454324265678
 21
91.0294738432120738
 31
0.0
  0
LINE
  5
2DD
100
AcDbEntity
100
AcDbLine
  8
Motor Gear
 62
256
370
-1
  6
ByLayer
 10
210.450454324265678
 20
91.0294738432120738
 30
0.0
 11
211.2561752892005416
 21
90.4505773681252663
 31
0.0
  0
LINE
  5
2DE
100
AcDbEntity
100
AcDbLine
  8
Motor Gear
 62
256
370
-1
  6
ByLayer
 10
211.2561752892005416
 20
90.4505773681252663
 30
0.0
 11
211.4949381835040469
 21
90.1699265331813109
 31
0.0
  0
LINE
  5
2DF
100
AcDbEntity
100
AcDbLine
  8
Motor Gear
 62
256
370
-1
  6
ByLayer
 10
211.4949381835040469
 20
90.1699265331813109
 30
0.0
 11
212.6707415232921221
 21
91.0721996317191014
 31
0.0
  0
LINE
  5
2E0
100
AcDbEntity
100
AcDbLine
  8
Motor Gear
 62
256
370
-1
  6
ByLayer
 10
212.6707415232921221
 20
91.0721996317191014
 30
0.0
 11
212.4615096122977889
 21
91.375470874831521
 31
0.0
  0
LINE
  5
2E1
100
AcDbEntity
100
AcDbLine
  8
Motor Gear
 62
256
370
-1
  6
ByLayer
 10
212.4615096122977889
 20
91.375470874831521
 30
0.0
 11
212.1109047884694689
 21
92.3037150308891796
 31
0.0
  0
LINE
  5
2E2
100
AcDbEntity
100
AcDbLine
  8
Motor Gear
 62
256
370
-1
  6
ByLayer
 10
212.1109047884694689
 20
92.3037150308891796
 30
0.0
 11
211.9234554377770223
 21
93.7670812649919725
 31
0.0
  0
LINE
  5
2E3
100
AcDbEntity
100
AcDbLine
  8
Motor Gear
 62
256
370
-1
  6
ByLayer
 10
211.9234554377770223
 20
93.7670812649919725
 30
0.0
 11
212.7497010780412552
 21
94.2439792242853542
 31
0.0
  0
LINE
  5
2E4
100
AcDbEntity
100
AcDbLine
  8
Motor Gear
 62
256
370
-1
  6
ByLayer
 10
212.7497010780412552
 20
94.2439792242853542
 30
0.0
 11
213.9234109113353384
 21
93.350083862298689
 31
0.0
  0
LINE
  5
2E5
100
AcDbEntity
100
AcDbLine
  8
Motor Gear
 62
256
370
-1
  6
ByLayer
 10
213.9234109113353384
 20
93.350083862298689
 30
0.0
 11
214.5517344736319956
 21
92.5822716172241229
 31
0.0
  0
LINE
  5
2E6
100
AcDbEntity
100
AcDbLine
  8
Motor Gear
 62
256
370
-1
  6
ByLayer
 10
214.5517344736319956
 20
92.5822716172241229
 30
0.0
 11
214.709862859568176
 21
92.2494693908024743
 31
0.0
  0
LINE
  5
2E7
100
AcDbEntity
100
AcDbLine
  8
Motor Gear
 62
256
370
-1
  6
ByLayer
 10
214.709862859568176
 20
92.2494693908024743
 30
0.0
 11
216.0789812272300026
 21
92.8166367378716899
 31
0.0
  0
LINE
  5
2E8
100
AcDbEntity
100
AcDbLine
  8
Motor Gear
 62
256
370
-1
  6
ByLayer
 10
216.0789812272300026
 20
92.8166367378716899
 30
0.0
 11
215.9554109118026872
 21
93.1636808937956715
 31
0.0
  0
LINE
  5
2E9
100
AcDbEntity
100
AcDbLine
  8
Motor Gear
 62
256
370
-1
  6
ByLayer
 10
215.9554109118026872
 20
93.1636808937956715
 30
0.0
 11
215.8569730639136139
 21
94.1509877585867656
 31
0.0
  0
LINE
  5
2EA
100
AcDbEntity
100
AcDbLine
  8
Motor Gear
 62
256
370
-1
  6
ByLayer
 10
215.8569730639136139
 20
94.1509877585867656
 30
0.0
 11
216.0546858654433322
 21
95.6130975919471666
 31
0.0
  0
LINE
  5
2EB
100
AcDbEntity
100
AcDbLine
  8
Motor Gear
 62
256
370
-1
  6
ByLayer
 10
216.0546858654433322
 20
95.6130975919471666
 30
0.0
 11
216.9762279806831202
 21
95.8600289463638973
 31
0.0
  0
LINE
  5
2EC
100
AcDbEntity
100
AcDbLine
  8
Motor Gear
 62
256
370
-1
  6
ByLayer
 10
216.9762279806831202
 20
95.8600289463638973
 30
0.0
 11
217.8785010792208823
 21
94.6926026010118989
 31
0.0
  0
LINE
  5
2ED
100
AcDbEntity
100
AcDbLine
  8
Motor Gear
 62
256
370
-1
  6
ByLayer
 10
217.8785010792208823
 20
94.6926026010118989
 30
0.0
 11
218.286911468925183
 21
93.788444530303039
 31
0.0
  0
LINE
  5
2EE
100
AcDbEntity
100
AcDbLine
  8
Motor Gear
 62
256
370
-1
  6
ByLayer
 10
218.286911468925183
 20
93.788444530303039
 30
0.0
 11
218.3533047899052235
 21
93.4261105784571697
 31
0.0
  0
LINE
  5
2EF
100
AcDbEntity
100
AcDbLine
  8
Motor Gear
 62
256
370
-1
  6
ByLayer
 10
218.3533047899052235
 20
93.4261105784571697
 30
0.0
 11
219.8227452355122011
 21
93.6194256063309496
 31
0.0
  0
LINE
  5
2F0
100
AcDbEntity
100
AcDbLine
  8
Motor Gear
 62
256
370
-1
  6
ByLayer
 10
219.8227452355122011
 20
93.6194256063309496
 30
0.0
 11
219.793214252203029
 21
93.9867851611463863
 31
0.0
  0
LINE
  5
2F1
100
AcDbEntity
100
AcDbLine
  8
Motor Gear
 62
256
370
-1
  6
ByLayer
 10
219.793214252203029
 20
93.9867851611463863
 30
0.0
 11
219.9536461631861073
 21
94.9659235658242693
 31
0.0
  0
LINE
  5
2F2
100
AcDbEntity
100
AcDbLine
  8
Motor Gear
 62
256
370
-1
  6
ByLayer
 10
219.9536461631861073
 20
94.9659235658242693
 30
0.0
 11
220.5231170353022492
 21
96.3268734733729417
 31
0.0
  0
LINE
  5
2F3
100
AcDbEntity
100
AcDbLine
  8
Motor Gear
 62
256
370
-1
  6
ByLayer
 10
220.5231170353022492
 20
96.3268734733729417
 30
0.0
 11
221.4769129538889558
 21
96.3268734733729417
 31
0.0
  0
LINE
  5
2F4
100
AcDbEntity
100
AcDbLine
  8
Motor Gear
 62
256
370
-1
  6
ByLayer
 10
221.4769129538889558
 20
96.3268734733729417
 30
0.0
 11
222.0463838260050977
 21
94.9659235658242693
 31
0.0
  0
LINE
  5
2F5
100
AcDbEntity
100
AcDbLine
  8
Motor Gear
 62
256
370
-1
  6
ByLayer
 10
222.0463838260050977
 20
94.9659235658242693
 30
0.0
 11
222.206815736988176
 21
93.9867851611463863
 31
0.0
  0
LINE
  5
2F6
100
AcDbEntity
100
AcDbLine
  8
Motor Gear
 62
256
370
-1
  6
ByLayer
 10
222.206815736988176
 20
93.9867851611463863
 30
0.0
 11
222.1772847536789754
 21
93.6194256063309496
 31
0.0
  0
LINE
  5
2F7
100
AcDbEntity
100
AcDbLine
  8
Motor Gear
 62
256
370
-1
  6
ByLayer
 10
222.1772847536789754
 20
93.6194256063309496
 30
0.0
 11
223.6467251992859815
 21
93.4261105784571697
 31
0.0
  0
LINE
  5
2F8
100
AcDbEntity
100
AcDbLine
  8
Motor Gear
 62
256
370
-1
  6
ByLayer
 10
223.6467251992859815
 20
93.4261105784571697
 30
0.0
 11
223.7131185202659935
 21
93.788444530303039
 31
0.0
  0
LINE
  5
2F9
100
AcDbEntity
100
AcDbLine
  8
Motor Gear
 62
256
370
-1
  6
ByLayer
 10
223.7131185202659935
 20
93.788444530303039
 30
0.0
 11
224.1215289099703227
 21
94.6926026010118989
 31
0.0
  0
LINE
  5
2FA
100
AcDbEntity
100
AcDbLine
  8
Motor Gear
 62
256
370
-1
  6
ByLayer
 10
224.1215289099703227
 20
94.6926026010118989
 30
0.0
 11
225.0238020085080848
 21
95.8600289463638973
 31
0.0
  0
LINE
  5
2FB
100
AcDbEntity
100
AcDbLine
  8
Motor Gear
 62
256
370
-1
  6
ByLayer
 10
225.0238020085080848
 20
95.8600289463638973
 30
0.0
 11
225.9453441237478444
 21
95.6130975919471666
 31
0.0
  0
LINE
  5
2FC
100
AcDbEntity
100
AcDbLine
  8
Motor Gear
 62
256
370
-1
  6
ByLayer
 10
225.9453441237478444
 20
95.6130975919471666
 30
0.0
 11
226.1430569252775626
 21
94.1509877585867656
 31
0.0
  0
LINE
  5
2FD
100
AcDbEntity
100
AcDbLine
  8
Motor Gear
 62
256
370
-1
  6
ByLayer
 10
226.1430569252775626
 20
94.1509877585867656
 30
0.0
 11
226.0446190773885178
 21
93.1636808937956715
 31
0.0
  0
LINE
  5
2FE
100
AcDbEntity
100
AcDbLine
  8
Motor Gear
 62
256
370
-1
  6
ByLayer
 10
226.0446190773885178
 20
93.1636808937956715
 30
0.0
 11
225.9210487619612024
 21
92.8166367378716899
 31
0.0
  0
LINE
  5
2FF
100
AcDbEntity
100
AcDbLine
  8
Motor Gear
 62
256
370
-1
  6
ByLayer
 10
225.9210487619612024
 20
92.8166367378716899
 30
0.0
 11
227.290167129623029
 21
92.2494693908024743
 31
0.0
  0
LINE
  5
300
100
AcDbEntity
100
AcDbLine
  8
Motor Gear
 62
256
370
-1
  6
ByLayer
 10
227.290167129623029
 20
92.2494693908024743
 30
0.0
 11
227.4482955155592094
 21
92.5822716172241229
 31
0.0
  0
LINE
  5
301
100
AcDbEntity
100
AcDbLine
  8
Motor Gear
 62
256
370
-1
  6
ByLayer
 10
227.4482955155592094
 20
92.5822716172241229
 30
0.0
 11
228.0766190778558951
 21
93.350083862298689
 31
0.0
  0
LINE
  5
302
100
AcDbEntity
100
AcDbLine
  8
Motor Gear
 62
256
370
-1
  6
ByLayer
 10
228.0766190778558951
 20
93.350083862298689
 30
0.0
 11
229.2503289111499498
 21
94.2439792242853542
 31
0.0
  0
LINE
  5
303
100
AcDbEntity
100
AcDbLine
  8
Motor Gear
 62
256
370
-1
  6
ByLayer
 10
229.2503289111499498
 20
94.2439792242853542
 30
0.0
 11
230.0765745514141827
 21
93.7670812649919725
 31
0.0
  0
LINE
  5
304
100
AcDbEntity
100
AcDbLine
  8
Motor Gear
 62
256
370
-1
  6
ByLayer
 10
230.0765745514141827
 20
93.7670812649919725
 30
0.0
 11
229.8891252007217076
 21
92.3037150308891796
 31
0.0
  0
LINE
  5
305
100
AcDbEntity
100
AcDbLine
  8
Motor Gear
 62
256
370
-1
  6
ByLayer
 10
229.8891252007217076
 20
92.3037150308891796
 30
0.0
 11
229.5385203768934161
 21
91.375470874831521
 31
0.0
  0
LINE
  5
306
100
AcDbEntity
100
AcDbLine
  8
Motor Gear
 62
256
370
-1
  6
ByLayer
 10
229.5385203768934161
 20
91.375470874831521
 30
0.0
 11
229.3292884658990829
 21
91.0721996317191014
 31
0.0
  0
LINE
  5
307
100
AcDbEntity
100
AcDbLine
  8
Motor Gear
 62
256
370
-1
  6
ByLayer
 10
229.3292884658990829
 20
91.0721996317191014
 30
0.0
 11
230.5050918056871296
 21
90.1699265331813109
 31
0.0
  0
LINE
  5
308
100
AcDbEntity
100
AcDbLine
  8
Motor Gear
 62
256
370
-1
  6
ByLayer
 10
230.5050918056871296
 20
90.1699265331813109
 30
0.0
 11
230.7438546999906634
 21
90.4505773681252663
 31
0.0
  0
LINE
  5
309
100
AcDbEntity
100
AcDbLine
  8
Motor Gear
 62
256
370
-1
  6
ByLayer
 10
230.7438546999906634
 20
90.4505773681252663
 30
0.0
 11
231.549575664925527
 21
91.0294738432120738
 31
0.0
  0
LINE
  5
30A
100
AcDbEntity
100
AcDbLine
  8
Motor Gear
 62
256
370
-1
  6
ByLayer
 10
231.549575664925527
 20
91.0294738432120738
 30
0.0
 11
232.9147148118072153
 21
91.5893105780346701
 31
0.0
  0
LINE
  5
30B
100
AcDbEntity
100
AcDbLine
  8
Motor Gear
 62
256
370
-1
  6
ByLayer
 10
232.9147148118072153
 20
91.5893105780346701
 30
0.0
 11
233.5893255726302868
 21
90.9146998172115985
 31
0.0
  0
LINE
  5
30C
100
AcDbEntity
100
AcDbLine
  8
Motor Gear
 62
256
370
-1
  6
ByLayer
 10
233.5893255726302868
 20
90.9146998172115985
 30
0.0
 11
233.0294888378076621
 21
89.5495606703299245
 31
0.0
  0
LINE
  5
30D
100
AcDbEntity
100
AcDbLine
  8
Motor Gear
 62
256
370
-1
  6
ByLayer
 10
233.0294888378076621
 20
89.5495606703299245
 30
0.0
 11
232.4505923627208972
 21
88.7438397053950752
 31
0.0
  0
LINE
  5
30E
100
AcDbEntity
100
AcDbLine
  8
Motor Gear
 62
256
370
-1
  6
ByLayer
 10
232.4505923627208972
 20
88.7438397053950752
 30
0.0
 11
232.1699415277769276
 21
88.5050768110915413
 31
0.0
  0
LINE
  5
30F
100
AcDbEntity
100
AcDbLine
  8
Motor Gear
 62
256
370
-1
  6
ByLayer
 10
232.1699415277769276
 20
88.5050768110915413
 30
0.0
 11
233.0722146263146897
 21
87.3292734713035088
 31
0.0
  0
LINE
  5
310
100
AcDbEntity
100
AcDbLine
  8
Motor Gear
 62
256
370
-1
  6
ByLayer
 10
233.0722146263146897
 20
87.3292734713035088
 30
0.0
 11
233.3754858694271093
 21
87.5385053822977994
 31
0.0
  0
LINE
  5
311
100
AcDbEntity
100
AcDbLine
  8
Motor Gear
 62
256
370
-1
  6
ByLayer
 10
233.3754858694271093
 20
87.5385053822977994
 30
0.0
 11
234.3037300254847821
 21
87.8891102061261194
 31
0.0
  0
LINE
  5
312
100
AcDbEntity
100
AcDbLine
  8
Motor Gear
 62
256
370
-1
  6
ByLayer
 10
234.3037300254847821
 20
87.8891102061261194
 30
0.0
 11
235.7670962595875608
 21
88.0765595568185944
 31
0.0
  0
LINE
  5
313
100
AcDbEntity
100
AcDbLine
  8
Motor Gear
 62
256
370
-1
  6
ByLayer
 10
235.7670962595875608
 20
88.0765595568185944
 30
0.0
 11
236.2439942188809141
 21
87.2503139165543615
 31
0.0
  0
LINE
  5
314
100
AcDbEntity
100
AcDbLine
  8
Motor Gear
 62
256
370
-1
  6
ByLayer
 10
236.2439942188809141
 20
87.2503139165543615
 30
0.0
 11
235.3500988568942489
 21
86.0766040832602783
 31
0.0
  0
LINE
  5
315
100
AcDbEntity
100
AcDbLine
  8
Motor Gear
 62
256
370
-1
  6
ByLayer
 10
235.3500988568942489
 20
86.0766040832602783
 30
0.0
 11
234.5822866118197112
 21
85.4482805209636211
 31
0.0
  0
LINE
  5
316
100
AcDbEntity
100
AcDbLine
  8
Motor Gear
 62
256
370
-1
  6
ByLayer
 10
234.5822866118197112
 20
85.4482805209636211
 30
0.0
 11
234.2494843853980626
 21
85.2901521350274407
 31
0.0
  0
LINE
  5
317
100
AcDbEntity
100
AcDbLine
  8
Motor Gear
 62
256
370
-1
  6
ByLayer
 10
234.2494843853980626
 20
85.2901521350274407
 30
0.0
 11
234.8166517324673066
 21
83.9210337673656284
 31
0.0
  0
LINE
  5
318
100
AcDbEntity
100
AcDbLine
  8
Motor Gear
 62
256
370
-1
  6
ByLayer
 10
234.8166517324673066
 20
83.9210337673656284
 30
0.0
 11
235.1636958883912598
 21
84.0446040827929011
 31
0.0
  0
LINE
  5
319
100
AcDbEntity
100
AcDbLine
  8
Motor Gear
 62
256
370
-1
  6
ByLayer
 10
235.1636958883912598
 20
84.0446040827929011
 30
0.0
 11
236.1510027531823539
 21
84.1430419306819743
 31
0.0
  0
LINE
  5
31A
100
AcDbEntity
100
AcDbLine
  8
Motor Gear
 62
256
370
-1
  6
ByLayer
 10
236.1510027531823539
 20
84.1430419306819743
 30
0.0
 11
237.6131125865427691
 21
83.9453291291522845
 31
0.0
  0
LINE
  5
31B
100
AcDbEntity
100
AcDbLine
  8
Motor Gear
 62
256
370
-1
  6
ByLayer
 10
237.6131125865427691
 20
83.9453291291522845
 30
0.0
 11
237.8600439409594856
 21
83.0237870139124681
 31
0.0
  0
LINE
  5
31C
100
AcDbEntity
100
AcDbLine
  8
Motor Gear
 62
256
370
-1
  6
ByLayer
 10
237.8600439409594856
 20
83.0237870139124681
 30
0.0
 11
236.6926175956074871
 21
82.121513915374706
 31
0.0
  0
LINE
  5
31D
100
AcDbEntity
100
AcDbLine
  8
Motor Gear
 62
256
370
-1
  6
ByLayer
 10
236.6926175956074871
 20
82.121513915374706
 30
0.0
 11
235.7884595248985988
 21
81.7131035256704195
 31
0.0
  0
LINE
  5
31E
100
AcDbEntity
100
AcDbLine
  8
Motor Gear
 62
256
370
-1
  6
ByLayer
 10
235.7884595248985988
 20
81.7131035256704195
 30
0.0
 11
235.426125573052758
 21
81.6467102046904216
 31
0.0
  0
LINE
  5
31F
100
AcDbEntity
100
AcDbLine
  8
Motor Gear
 62
256
370
-1
  6
ByLayer
 10
235.426125573052758
 20
81.6467102046904216
 30
0.0
 11
235.6194406009265379
 21
80.1772697590834014
 31
0.0
  0
LINE
  5
320
100
AcDbEntity
100
AcDbLine
  8
Motor Gear
 62
256
370
-1
  6
ByLayer
 10
262.5405904825453263
 20
42.144999999999925
 30
0.0
 11
257.4594095174546169
 21
42.144999999999925
 31
0.0
  0
ARC
  5
321
100
AcDbEntity
  8
Motor Gear
 62
256
370
-1
  6
ByLayer
100
AcDbCircle
 10
259.9999999999999432
 20
39.9999999999999289
 30
0.0
 40
3.3250000000000002
100
AcDbArc
 50
319.8258680010101784
 51
40.1741319989898216
  0
ARC
  5
322
100
AcDbEntity
  8
Motor Gear
 62
256
370
-1
  6
ByLayer
100
AcDbCircle
 10
259.9999999999999432
 20
39.9999999999999289
 30
0.0
 40
3.3250000000000002
100
AcDbArc
 50
139.8258680010101784
 51
220.1741319989898216
  0
LINE
  5
323
100
AcDbEntity
100
AcDbLine
  8
Motor Gear
 62
256
370
-1
  6
ByLayer
 10
262.5405904825453263
 20
37.8549999999999187
 30
0.0
 11
257.45940951745456
 21
37.8549999999999187
 31
0.0
  0
LINE
  5
324
100
AcDbEntity
100
AcDbLine
  8
Rotor Gear
 62
256
370
0
  6
ByLayer
 10
219.2119098002814326
 20
86.0276074713236483
 30
0.0
 11
226.1920414981323688
 21
84.062335272876112
 31
0.0
  0
LINE
  5
325
100
AcDbEntity
100
AcDbLine
  8
Rotor Gear
 62
256
370
0
  6
ByLayer
 10
226.1920414981323688
 20
84.062335272876112
 30
0.0
 11
227.9801316978509362
 21
77.0347278015525205
 31
0.0
  0
LINE
  5
326
100
AcDbEntity
100
AcDbLine
  8
Rotor Gear
 62
256
370
0
  6
ByLayer
 10
215.8079585018677164
 20
73.9376647271240302
 30
0.0
 11
214.0198683021491775
 21
80.9652721984476216
 31
0.0
  0
LINE
  5
327
100
AcDbEntity
100
AcDbLine
  8
Rotor Gear
 62
256
370
0
  6
ByLayer
 10
214.019868302149149
 20
80.9652721984475647
 30
0.0
 11
219.2119098002814326
 21
86.0276074713235914
 31
0.0
  0
LINE
  5
328
100
AcDbEntity
100
AcDbLine
  8
Rotor Gear
 62
256
370
0
  6
ByLayer
 10
227.9801316978508794
 20
77.0347278015524637
 30
0.0
 11
222.7880901997185674
 21
71.9723925286763233
 31
0.0
  0
LINE
  5
329
100
AcDbEntity
100
AcDbLine
  8
Rotor Gear
 62
256
370
0
  6
ByLayer
 10
222.7880901997185674
 20
71.9723925286763233
 30
0.0
 11
215.807958501867688
 21
73.9376647271239733
 31
0.0
  0
MTEXT
  5
32A
100
AcDbEntity
100
AcDbMText
  8
Motor Gear Text
 62
256
370
-1
  6
ByLayer
 10
221.0000149945956025
 20
74.3268734733729417
 30
0.0
 40
3.0
 41
100.0
 71
5
 72
2
  1
Rotor\~Gear
  7
standard
 50
0.0
 73
1
 44
1.0
  0
MTEXT
  5
32B
100
AcDbEntity
100
AcDbMText
  8
Rotor Gear Text
 62
256
370
-1
  6
ByLayer
 10
260.0000149945956309
 20
25.2201839750454724
 30
0.0
 40
3.0
 41
100.0
 71
5
 72
2
  1
Motor\~Gear
  7
standard
 50
0.0
 73
1
 44
1.0
  0
CIRCLE
  5
32C
100
AcDbEntity
100
AcDbCircle
  8
Layer 4
 62
256
370
-1
  6
ByLayer
 10
80.0
 20
183.0
 30
0.0
 40
2.4700000000000002
  0
CIRCLE
  5
32D
100
AcDbEntity
100
AcDbCircle
  8
Layer 4
 62
256
370
-1
  6
ByLayer
 10
180.0
 20
183.0
 30
0.0
 40
2.4700000000000002
  0
LINE
  5
32E
100
AcDbEntity
100
AcDbLine
  8
Rotor Gear 1:1
 62
256
370
-1
  6
ByLayer
 10
70.5997648800292836
 20
37.2564932896233927
 30
0.0
 11
72.3356200794202095
 21
37.4650768687709927
 31
0.0
  0
LINE
  5
32F
100
AcDbEntity
100
AcDbLine
  8
Rotor Gear 1:1
 62
256
370
-1
  6
ByLayer
 10
72.3356200794202095
 20
37.4650768687709927
 30
0.0
 11
73.8089916113707432
 21
37.2828166298739063
 31
0.0
  0
LINE
  5
330
100
AcDbEntity
100
AcDbLine
  8
Rotor Gear 1:1
 62
256
370
-1
  6
ByLayer
 10
73.8089916113707432
 20
37.2828166298739063
 30
0.0
 11
77.1119814180040066
 21
35.8277460953195828
 31
0.0
  0
LINE
  5
331
100
AcDbEntity
100
AcDbLine
  8
Rotor Gear 1:1
 62
256
370
-1
  6
ByLayer
 10
77.1119814180040066
 20
35.8277460953195828
 30
0.0
 11
77.1119814180040066
 21
33.7328868337168473
 31
0.0
  0
LINE
  5
332
100
AcDbEntity
100
AcDbLine
  8
Rotor Gear 1:1
 62
256
370
-1
  6
ByLayer
 10
77.1119814180040066
 20
33.7328868337168473
 30
0.0
 11
73.8089916113707432
 21
32.2778162991625237
 31
0.0
  0
LINE
  5
333
100
AcDbEntity
100
AcDbLine
  8
Rotor Gear 1:1
 62
256
370
-1
  6
ByLayer
 10
73.8089916113707432
 20
32.2778162991625237
 30
0.0
 11
72.3356200794202095
 21
32.0955560602654373
 31
0.0
  0
LINE
  5
334
100
AcDbEntity
100
AcDbLine
  8
Rotor Gear 1:1
 62
256
370
-1
  6
ByLayer
 10
72.3356200794202095
 20
32.0955560602654373
 30
0.0
 11
70.5997648800292836
 21
32.3041396394129805
 31
0.0
  0
LINE
  5
335
100
AcDbEntity
100
AcDbLine
  8
Rotor Gear 1:1
 62
256
370
-1
  6
ByLayer
 10
70.5997648800292836
 20
32.3041396394129805
 30
0.0
 11
69.825849971209891
 21
28.6634554796514749
 31
0.0
  0
LINE
  5
336
100
AcDbEntity
100
AcDbLine
  8
Rotor Gear 1:1
 62
256
370
-1
  6
ByLayer
 10
69.825849971209891
 20
28.6634554796514749
 30
0.0
 11
71.4965235238704508
 21
28.1482640148971868
 31
0.0
  0
LINE
  5
337
100
AcDbEntity
100
AcDbLine
  8
Rotor Gear 1:1
 62
256
370
-1
  6
ByLayer
 10
71.4965235238704508
 20
28.1482640148971868
 30
0.0
 11
72.7683309156319638
 21
27.3823714489321333
 31
0.0
  0
LINE
  5
338
100
AcDbEntity
100
AcDbLine
  8
Rotor Gear 1:1
 62
256
370
-1
  6
ByLayer
 10
72.7683309156319638
 20
27.3823714489321333
 30
0.0
 11
75.1938659797160085
 21
24.7096450031167336
 31
0.0
  0
LINE
  5
339
100
AcDbEntity
100
AcDbLine
  8
Rotor Gear 1:1
 62
256
370
-1
  6
ByLayer
 10
75.1938659797160085
 20
24.7096450031167336
 30
0.0
 11
74.3419830657292096
 21
22.7960421882037494
 31
0.0
  0
LINE
  5
33A
100
AcDbEntity
100
AcDbLine
  8
Rotor Gear 1:1
 62
256
370
-1
  6
ByLayer
 10
74.3419830657292096
 20
22.7960421882037494
 30
0.0
 11
70.7326367656969524
 21
22.8103324583286025
 31
0.0
  0
LINE
  5
33B
100
AcDbEntity
100
AcDbLine
  8
Rotor Gear 1:1
 62
256
370
-1
  6
ByLayer
 10
70.7326367656969524
 20
22.8103324583286025
 30
0.0
 11
69.3126643142471153
 21
23.2430424062287102
 31
0.0
  0
LINE
  5
33C
100
AcDbEntity
100
AcDbLine
  8
Rotor Gear 1:1
 62
256
370
-1
  6
ByLayer
 10
69.3126643142471153
 20
23.2430424062287102
 30
0.0
 11
67.8117151459425713
 21
24.1395505461739006
 31
0.0
  0
LINE
  5
33D
100
AcDbEntity
100
AcDbLine
  8
Rotor Gear 1:1
 62
256
370
-1
  6
ByLayer
 10
67.8117151459425713
 20
24.1395505461739006
 30
0.0
 11
65.6240957129439266
 21
21.1283773472304546
 31
0.0
  0
LINE
  5
33E
100
AcDbEntity
100
AcDbLine
  8
Rotor Gear 1:1
 62
256
370
-1
  6
ByLayer
 10
65.6240957129439266
 20
21.1283773472304546
 30
0.0
 11
66.9405283306638239
 21
19.9781593943872622
 31
0.0
  0
LINE
  5
33F
100
AcDbEntity
100
AcDbLine
  8
Rotor Gear 1:1
 62
256
370
-1
  6
ByLayer
 10
66.9405283306638239
 20
19.9781593943872622
 30
0.0
 11
67.7909073329628882
 21
18.7612558831259193
 31
0.0
  0
LINE
  5
340
100
AcDbEntity
100
AcDbLine
  8
Rotor Gear 1:1
 62
256
370
-1
  6
ByLayer
 10
67.7909073329628882
 20
18.7612558831259193
 30
0.0
 11
68.9198155767226126
 21
15.3329155258873229
 31
0.0
  0
LINE
  5
341
100
AcDbEntity
100
AcDbLine
  8
Rotor Gear 1:1
 62
256
370
-1
  6
ByLayer
 10
68.9198155767226126
 20
15.3329155258873229
 30
0.0
 11
67.3629605123338138
 21
13.9312440718337029
 31
0.0
  0
LINE
  5
342
100
AcDbEntity
100
AcDbLine
  8
Rotor Gear 1:1
 62
256
370
-1
  6
ByLayer
 10
67.3629605123338138
 20
13.9312440718337029
 30
0.0
 11
64.0715027680341223
 21
15.4123874427425207
 31
0.0
  0
LINE
  5
343
100
AcDbEntity
100
AcDbLine
  8
Rotor Gear 1:1
 62
256
370
-1
  6
ByLayer
 10
64.0715027680341223
 20
15.4123874427425207
 30
0.0
 11
62.9503663632327175
 21
16.3853596761674041
 31
0.0
  0
LINE
  5
344
100
AcDbEntity
100
AcDbLine
  8
Rotor Gear 1:1
 62
256
370
-1
  6
ByLayer
 10
62.9503663632327175
 20
16.3853596761674041
 30
0.0
 11
61.9438008467027998
 21
17.8148583821593078
 31
0.0
  0
LINE
  5
345
100
AcDbEntity
100
AcDbLine
  8
Rotor Gear 1:1
 62
256
370
-1
  6
ByLayer
 10
61.9438008467027998
 20
17.8148583821593078
 30
0.0
 11
58.7205343491324356
 21
15.9539022477473367
 31
0.0
  0
LINE
  5
346
100
AcDbEntity
100
AcDbLine
  8
Rotor Gear 1:1
 62
256
370
-1
  6
ByLayer
 10
58.7205343491324356
 20
15.9539022477473367
 30
0.0
 11
59.455339559264246
 21
14.3674646275247753
 31
0.0
  0
LINE
  5
347
100
AcDbEntity
100
AcDbLine
  8
Rotor Gear 1:1
 62
256
370
-1
  6
ByLayer
 10
59.455339559264246
 20
14.3674646275247753
 30
0.0
 11
59.7371280163082474
 21
12.9098872773868436
 31
0.0
  0
LINE
  5
348
100
AcDbEntity
100
AcDbLine
  8
Rotor Gear 1:1
 62
256
370
-1
  6
ByLayer
 10
59.7371280163082474
 20
12.9098872773868436
 30
0.0
 11
59.3741123385135552
 21
9.3188419747507538
 31
0.0
  0
LINE
  5
349
100
AcDbEntity
100
AcDbLine
  8
Rotor Gear 1:1
 62
256
370
-1
  6
ByLayer
 10
59.3741123385135552
 20
9.3188419747507538
 30
0.0
 11
57.381789118433403
 21
8.6715310243285799
 31
0.0
  0
LINE
  5
34A
100
AcDbEntity
100
AcDbLine
  8
Rotor Gear 1:1
 62
256
370
-1
  6
ByLayer
 10
57.381789118433403
 20
8.6715310243285799
 30
0.0
 11
54.9773132595367997
 21
11.3633108675399228
 31
0.0
  0
LINE
  5
34B
100
AcDbEntity
100
AcDbLine
  8
Rotor Gear 1:1
 62
256
370
-1
  6
ByLayer
 10
54.9773132595367997
 20
11.3633108675399228
 30
0.0
 11
54.3488052026144715
 21
12.7083231371978442
 31
0.0
  0
LINE
  5
34C
100
AcDbEntity
100
AcDbLine
  8
Rotor Gear 1:1
 62
256
370
-1
  6
ByLayer
 10
54.3488052026144715
 20
12.7083231371978442
 30
0.0
 11
54.0106089533824729
 21
14.4233714119207406
 31
0.0
  0
LINE
  5
34D
100
AcDbEntity
100
AcDbLine
  8
Rotor Gear 1:1
 62
256
370
-1
  6
ByLayer
 10
54.0106089533824729
 20
14.4233714119207406
 30
0.0
 11
50.3090043780579208
 21
14.0345334016675665
 31
0.0
  0
LINE
  5
34E
100
AcDbEntity
100
AcDbLine
  8
Rotor Gear 1:1
 62
256
370
-1
  6
ByLayer
 10
50.3090043780579208
 20
14.0345334016675665
 30
0.0
 11
50.3350772144123653
 21
12.2863928516315895
 31
0.0
  0
LINE
  5
34F
100
AcDbEntity
100
AcDbLine
  8
Rotor Gear 1:1
 62
256
370
-1
  6
ByLayer
 10
50.3350772144123653
 20
12.2863928516315895
 30
0.0
 11
49.9998896768676673
 21
10.8400970599312956
 31
0.0
  0
LINE
  5
350
100
AcDbEntity
100
AcDbLine
  8
Rotor Gear 1:1
 62
256
370
-1
  6
ByLayer
 10
49.9998896768676673
 20
10.8400970599312956
 30
0.0
 11
48.2076257969770836
 21
7.7073335337577618
 31
0.0
  0
LINE
  5
351
100
AcDbEntity
100
AcDbLine
  8
Rotor Gear 1:1
 62
256
370
-1
  6
ByLayer
 10
48.2076257969770836
 20
7.7073335337577618
 30
0.0
 11
46.124298597708048
 21
7.9261957674471901
 31
0.0
  0
LINE
  5
352
100
AcDbEntity
100
AcDbLine
  8
Rotor Gear 1:1
 62
256
370
-1
  6
ByLayer
 10
46.124298597708048
 20
7.9261957674471901
 30
0.0
 11
45.0224660941985348
 21
11.3633108675399228
 31
0.0
  0
LINE
  5
353
100
AcDbEntity
100
AcDbLine
  8
Rotor Gear 1:1
 62
256
370
-1
  6
ByLayer
 10
45.0224660941985348
 20
11.3633108675399228
 30
0.0
 11
44.9951398500522828
 21
12.8477134540320819
 31
0.0
  0
LINE
  5
354
100
AcDbEntity
100
AcDbLine
  8
Rotor Gear 1:1
 62
256
370
-1
  6
ByLayer
 10
44.9951398500522828
 20
12.8477134540320819
 30
0.0
 11
45.3842283642014763
 21
14.5519811781094077
 31
0.0
  0
LINE
  5
355
100
AcDbEntity
100
AcDbLine
  8
Rotor Gear 1:1
 62
256
370
-1
  6
ByLayer
 10
45.3842283642014763
 20
14.5519811781094077
 30
0.0
 11
41.8443258303786365
 21
15.7021982426408613
 31
0.0
  0
LINE
  5
356
100
AcDbEntity
100
AcDbLine
  8
Rotor Gear 1:1
 62
256
370
-1
  6
ByLayer
 10
41.8443258303786365
 20
15.7021982426408613
 30
0.0
 11
41.1571536695807936
 21
14.094701417230894
 31
0.0
  0
LINE
  5
357
100
AcDbEntity
100
AcDbLine
  8
Rotor Gear 1:1
 62
256
370
-1
  6
ByLayer
 10
41.1571536695807936
 20
14.094701417230894
 30
0.0
 11
40.2626513374270871
 21
12.9098872773868507
 31
0.0
  0
LINE
  5
358
100
AcDbEntity
100
AcDbLine
  8
Rotor Gear 1:1
 62
256
370
-1
  6
ByLayer
 10
40.2626513374270871
 20
12.9098872773868507
 30
0.0
 11
37.3510063566305348
 21
10.7769203326807315
 31
0.0
  0
LINE
  5
359
100
AcDbEntity
100
AcDbLine
  8
Rotor Gear 1:1
 62
256
370
-1
  6
ByLayer
 10
37.3510063566305348
 20
10.7769203326807315
 30
0.0
 11
35.5369317598644443
 21
11.8243508517937528
 31
0.0
  0
LINE
  5
35A
100
AcDbEntity
100
AcDbLine
  8
Rotor Gear 1:1
 62
256
370
-1
  6
ByLayer
 10
35.5369317598644443
 20
11.8243508517937528
 30
0.0
 11
35.9282765857011555
 21
15.4123874427425491
 31
0.0
  0
LINE
  5
35B
100
AcDbEntity
100
AcDbLine
  8
Rotor Gear 1:1
 62
256
370
-1
  6
ByLayer
 10
35.9282765857011555
 20
15.4123874427425491
 30
0.0
 11
36.5071457854980963
 21
16.7794618214836717
 31
0.0
  0
LINE
  5
35C
100
AcDbEntity
100
AcDbLine
  8
Rotor Gear 1:1
 62
256
370
-1
  6
ByLayer
 10
36.5071457854980963
 20
16.7794618214836717
 30
0.0
 11
37.5555783201951385
 21
18.1783750677460603
 31
0.0
  0
LINE
  5
35D
100
AcDbEntity
100
AcDbLine
  8
Rotor Gear 1:1
 62
256
370
-1
  6
ByLayer
 10
37.5555783201951385
 20
18.1783750677460603
 30
0.0
 11
34.789591583503352
 21
20.6688421629761336
 31
0.0
  0
LINE
  5
35E
100
AcDbEntity
100
AcDbLine
  8
Rotor Gear 1:1
 62
256
370
-1
  6
ByLayer
 10
34.789591583503352
 20
20.6688421629761336
 30
0.0
 11
33.5080065449919289
 21
19.4797659036530675
 31
0.0
  0
LINE
  5
35F
100
AcDbEntity
100
AcDbLine
  8
Rotor Gear 1:1
 62
256
370
-1
  6
ByLayer
 10
33.5080065449919289
 20
19.4797659036530675
 30
0.0
 11
32.2088720207724464
 21
18.7612558831259406
 31
0.0
  0
LINE
  5
360
100
AcDbEntity
100
AcDbLine
  8
Rotor Gear 1:1
 62
256
370
-1
  6
ByLayer
 10
32.2088720207724464
 20
18.7612558831259406
 30
0.0
 11
28.6815044531790022
 21
17.9968672288487497
 31
0.0
  0
LINE
  5
361
100
AcDbEntity
100
AcDbLine
  8
Rotor Gear 1:1
 62
256
370
-1
  6
ByLayer
 10
28.6815044531790022
 20
17.9968672288487497
 30
0.0
 11
27.4503106717928063
 21
19.6916078100722842
 31
0.0
  0
LINE
  5
362
100
AcDbEntity
100
AcDbLine
  8
Rotor Gear 1:1
 62
256
370
-1
  6
ByLayer
 10
27.4503106717928063
 20
19.6916078100722842
 30
0.0
 11
29.267142588038439
 21
22.8103324583286025
 31
0.0
  0
LINE
  5
363
100
AcDbEntity
100
AcDbLine
  8
Rotor Gear 1:1
 62
256
370
-1
  6
ByLayer
 10
29.267142588038439
 20
22.8103324583286025
 30
0.0
 11
30.3519275019435213
 21
23.8236669099210872
 31
0.0
  0
LINE
  5
364
100
AcDbEntity
100
AcDbLine
  8
Rotor Gear 1:1
 62
256
370
-1
  6
ByLayer
 10
30.3519275019435213
 20
23.8236669099210872
 30
0.0
 11
31.8786981143948651
 21
24.6752993200118809
 31
0.0
  0
LINE
  5
365
100
AcDbEntity
100
AcDbLine
  8
Rotor Gear 1:1
 62
256
370
-1
  6
ByLayer
 10
31.8786981143948651
 20
24.6752993200118809
 30
0.0
 11
30.3649643642766023
 21
28.0753105292085507
 31
0.0
  0
LINE
  5
366
100
AcDbEntity
100
AcDbLine
  8
Rotor Gear 1:1
 62
256
370
-1
  6
ByLayer
 10
30.3649643642766023
 20
28.0753105292085507
 30
0.0
 11
28.7105860012207472
 21
27.5104802073288113
 31
0.0
  0
LINE
  5
367
100
AcDbEntity
100
AcDbLine
  8
Rotor Gear 1:1
 62
256
370
-1
  6
ByLayer
 10
28.7105860012207472
 20
27.5104802073288113
 30
0.0
 11
27.2314484381033708
 21
27.382371448932183
 31
0.0
  0
LINE
  5
368
100
AcDbEntity
100
AcDbLine
  8
Rotor Gear 1:1
 62
256
370
-1
  6
ByLayer
 10
27.2314484381033708
 20
27.382371448932183
 30
0.0
 11
23.698064335447043
 21
28.1189319629594863
 31
0.0
  0
LINE
  5
369
100
AcDbEntity
100
AcDbLine
  8
Rotor Gear 1:1
 62
256
370
-1
  6
ByLayer
 10
23.698064335447043
 20
28.1189319629594863
 30
0.0
 11
23.2625961797556897
 21
30.167914367435344
 31
0.0
  0
LINE
  5
36A
100
AcDbEntity
100
AcDbLine
  8
Rotor Gear 1:1
 62
256
370
-1
  6
ByLayer
 10
23.2625961797556897
 20
30.167914367435344
 30
0.0
 11
26.1907877423645914
 21
32.2778162991625663
 31
0.0
  0
LINE
  5
36B
100
AcDbEntity
100
AcDbLine
  8
Rotor Gear 1:1
 62
256
370
-1
  6
ByLayer
 10
26.1907877423645914
 20
32.2778162991625663
 30
0.0
 11
27.5942136120020223
 21
32.7624214158755862
 31
0.0
  0
LINE
  5
36C
100
AcDbEntity
100
AcDbLine
  8
Rotor Gear 1:1
 62
256
370
-1
  6
ByLayer
 10
27.5942136120020223
 20
32.7624214158755862
 30
0.0
 11
29.3353338347677663
 21
32.9193603301062581
 31
0.0
  0
LINE
  5
36D
100
AcDbEntity
100
AcDbLine
  8
Rotor Gear 1:1
 62
256
370
-1
  6
ByLayer
 10
29.3353338347677663
 20
32.9193603301062581
 30
0.0
 11
29.3353338347677663
 21
36.6412725989302004
 31
0.0
  0
LINE
  5
36E
100
AcDbEntity
100
AcDbLine
  8
Rotor Gear 1:1
 62
256
370
-1
  6
ByLayer
 10
29.3353338347677663
 20
36.6412725989302004
 30
0.0
 11
27.5942136120020791
 21
36.7982115131608793
 31
0.0
  0
LINE
  5
36F
100
AcDbEntity
100
AcDbLine
  8
Rotor Gear 1:1
 62
256
370
-1
  6
ByLayer
 10
27.5942136120020791
 20
36.7982115131608793
 30
0.0
 11
26.1907877423646482
 21
37.2828166298738921
 31
0.0
  0
LINE
  5
370
100
AcDbEntity
100
AcDbLine
  8
Rotor Gear 1:1
 62
256
370
-1
  6
ByLayer
 10
26.1907877423646482
 20
37.2828166298738921
 30
0.0
 11
23.2625961797556897
 21
39.3927185616011144
 31
0.0
  0
LINE
  5
371
100
AcDbEntity
100
AcDbLine
  8
Rotor Gear 1:1
 62
256
370
-1
  6
ByLayer
 10
23.2625961797556897
 20
39.3927185616011144
 30
0.0
 11
23.698064335447043
 21
41.4417009660769935
 31
0.0
  0
LINE
  5
372
100
AcDbEntity
100
AcDbLine
  8
Rotor Gear 1:1
 62
256
370
-1
  6
ByLayer
 10
23.698064335447043
 20
41.4417009660769935
 30
0.0
 11
27.2314484381033708
 21
42.1782614801042683
 31
0.0
  0
LINE
  5
373
100
AcDbEntity
100
AcDbLine
  8
Rotor Gear 1:1
 62
256
370
-1
  6
ByLayer
 10
27.2314484381033708
 20
42.1782614801042683
 30
0.0
 11
28.7105860012207472
 21
42.0501527217076472
 31
0.0
  0
LINE
  5
374
100
AcDbEntity
100
AcDbLine
  8
Rotor Gear 1:1
 62
256
370
-1
  6
ByLayer
 10
28.7105860012207472
 20
42.0501527217076472
 30
0.0
 11
30.3649643642766023
 21
41.4853223998279219
 31
0.0
  0
LINE
  5
375
100
AcDbEntity
100
AcDbLine
  8
Rotor Gear 1:1
 62
256
370
-1
  6
ByLayer
 10
30.3649643642766023
 20
41.4853223998279219
 30
0.0
 11
31.8786981143948651
 21
44.8853336090245705
 31
0.0
  0
LINE
  5
376
100
AcDbEntity
100
AcDbLine
  8
Rotor Gear 1:1
 62
256
370
-1
  6
ByLayer
 10
31.8786981143948651
 20
44.8853336090245705
 30
0.0
 11
30.3519275019435213
 21
45.7369660191153571
 31
0.0
  0
LINE
  5
377
100
AcDbEntity
100
AcDbLine
  8
Rotor Gear 1:1
 62
256
370
-1
  6
ByLayer
 10
30.3519275019435213
 20
45.7369660191153571
 30
0.0
 11
29.267142588038439
 21
46.7503004707078418
 31
0.0
  0
LINE
  5
378
100
AcDbEntity
100
AcDbLine
  8
Rotor Gear 1:1
 62
256
370
-1
  6
ByLayer
 10
29.267142588038439
 20
46.7503004707078418
 30
0.0
 11
27.4503106717928063
 21
49.8690251189640605
 31
0.0
  0
LINE
  5
379
100
AcDbEntity
100
AcDbLine
  8
Rotor Gear 1:1
 62
256
370
-1
  6
ByLayer
 10
27.4503106717928063
 20
49.8690251189640605
 30
0.0
 11
28.6815044531790022
 21
51.5637657001877017
 31
0.0
  0
LINE
  5
37A
100
AcDbEntity
100
AcDbLine
  8
Rotor Gear 1:1
 62
256
370
-1
  6
ByLayer
 10
28.6815044531790022
 20
51.5637657001877017
 30
0.0
 11
32.2088720207725032
 21
50.7993770459104752
 31
0.0
  0
LINE
  5
37B
100
AcDbEntity
100
AcDbLine
  8
Rotor Gear 1:1
 62
256
370
-1
  6
ByLayer
 10
32.2088720207725032
 20
50.7993770459104752
 30
0.0
 11
33.5080065449919857
 21
50.080867025383057
 31
0.0
  0
LINE
  5
37C
100
AcDbEntity
100
AcDbLine
  8
Rotor Gear 1:1
 62
256
370
-1
  6
ByLayer
 10
33.5080065449919857
 20
50.080867025383057
 30
0.0
 11
34.789591583503352
 21
48.8917907660603106
 31
0.0
  0
LINE
  5
37D
100
AcDbEntity
100
AcDbLine
  8
Rotor Gear 1:1
 62
256
370
-1
  6
ByLayer
 10
34.789591583503352
 20
48.8917907660603106
 30
0.0
 11
37.5555783201951385
 21
51.3822578612903982
 31
0.0
  0
LINE
  5
37E
100
AcDbEntity
100
AcDbLine
  8
Rotor Gear 1:1
 62
256
370
-1
  6
ByLayer
 10
37.5555783201951385
 20
51.3822578612903982
 30
0.0
 11
36.5071457854980963
 21
52.7811711075527796
 31
0.0
  0
LINE
  5
37F
100
AcDbEntity
100
AcDbLine
  8
Rotor Gear 1:1
 62
256
370
-1
  6
ByLayer
 10
36.5071457854980963
 20
52.7811711075527796
 30
0.0
 11
35.9282765857012123
 21
54.1482454862939022
 31
0.0
  0
LINE
  5
380
100
AcDbEntity
100
AcDbLine
  8
Rotor Gear 1:1
 62
256
370
-1
  6
ByLayer
 10
35.9282765857012123
 20
54.1482454862939022
 30
0.0
 11
35.5369317598645011
 21
57.7362820772427199
 31
0.0
  0
LINE
  5
381
100
AcDbEntity
100
AcDbLine
  8
Rotor Gear 1:1
 62
256
370
-1
  6
ByLayer
 10
35.5369317598645011
 20
57.7362820772427199
 30
0.0
 11
37.3510063566305917
 21
58.7837125963557128
 31
0.0
  0
LINE
  5
382
100
AcDbEntity
100
AcDbLine
  8
Rotor Gear 1:1
 62
256
370
-1
  6
ByLayer
 10
37.3510063566305917
 20
58.7837125963557128
 30
0.0
 11
40.262651337427144
 21
56.6507456516496006
 31
0.0
  0
LINE
  5
383
100
AcDbEntity
100
AcDbLine
  8
Rotor Gear 1:1
 62
256
370
-1
  6
ByLayer
 10
40.262651337427144
 20
56.6507456516496006
 30
0.0
 11
41.1571536695807936
 21
55.4659315118055503
 31
0.0
  0
LINE
  5
384
100
AcDbEntity
100
AcDbLine
  8
Rotor Gear 1:1
 62
256
370
-1
  6
ByLayer
 10
41.1571536695807936
 20
55.4659315118055503
 30
0.0
 11
41.8443258303786365
 21
53.858434686395583
 31
0.0
  0
LINE
  5
385
100
AcDbEntity
100
AcDbLine
  8
Rotor Gear 1:1
 62
256
370
-1
  6
ByLayer
 10
41.8443258303786365
 20
53.858434686395583
 30
0.0
 11
45.3842283642015332
 21
55.0086517509270436
 31
0.0
  0
LINE
  5
386
100
AcDbEntity
100
AcDbLine
  8
Rotor Gear 1:1
 62
256
370
-1
  6
ByLayer
 10
45.3842283642015332
 20
55.0086517509270436
 30
0.0
 11
44.9951398500523396
 21
56.7129194750043695
 31
0.0
  0
LINE
  5
387
100
AcDbEntity
100
AcDbLine
  8
Rotor Gear 1:1
 62
256
370
-1
  6
ByLayer
 10
44.9951398500523396
 20
56.7129194750043695
 30
0.0
 11
45.0224660941985917
 21
58.1973220614965214
 31
0.0
  0
LINE
  5
388
100
AcDbEntity
100
AcDbLine
  8
Rotor Gear 1:1
 62
256
370
-1
  6
ByLayer
 10
45.0224660941985917
 20
58.1973220614965214
 30
0.0
 11
46.124298597708048
 21
61.634437161589247
 31
0.0
  0
LINE
  5
389
100
AcDbEntity
100
AcDbLine
  8
Rotor Gear 1:1
 62
256
370
-1
  6
ByLayer
 10
46.124298597708048
 20
61.634437161589247
 30
0.0
 11
48.2076257969770836
 21
61.8532993952786825
 31
0.0
  0
LINE
  5
38A
100
AcDbEntity
100
AcDbLine
  8
Rotor Gear 1:1
 62
256
370
-1
  6
ByLayer
 10
48.2076257969770836
 20
61.8532993952786825
 30
0.0
 11
49.9998896768677241
 21
58.7205358691051487
 31
0.0
  0
LINE
  5
38B
100
AcDbEntity
100
AcDbLine
  8
Rotor Gear 1:1
 62
256
370
-1
  6
ByLayer
 10
49.9998896768677241
 20
58.7205358691051487
 30
0.0
 11
50.3350772144124221
 21
57.2742400774048548
 31
0.0
  0
LINE
  5
38C
100
AcDbEntity
100
AcDbLine
  8
Rotor Gear 1:1
 62
256
370
-1
  6
ByLayer
 10
50.3350772144124221
 20
57.2742400774048548
 30
0.0
 11
50.3090043780579208
 21
55.5260995273688849
 31
0.0
  0
LINE
  5
38D
100
AcDbEntity
100
AcDbLine
  8
Rotor Gear 1:1
 62
256
370
-1
  6
ByLayer
 10
50.3090043780579208
 20
55.5260995273688849
 30
0.0
 11
54.0106089533825298
 21
55.1372615171157037
 31
0.0
  0
LINE
  5
38E
100
AcDbEntity
100
AcDbLine
  8
Rotor Gear 1:1
 62
256
370
-1
  6
ByLayer
 10
54.0106089533825298
 20
55.1372615171157037
 30
0.0
 11
54.3488052026145283
 21
56.8523097918386071
 31
0.0
  0
LINE
  5
38F
100
AcDbEntity
100
AcDbLine
  8
Rotor Gear 1:1
 62
256
370
-1
  6
ByLayer
 10
54.3488052026145283
 20
56.8523097918386071
 30
0.0
 11
54.9773132595367997
 21
58.1973220614965214
 31
0.0
  0
LINE
  5
390
100
AcDbEntity
100
AcDbLine
  8
Rotor Gear 1:1
 62
256
370
-1
  6
ByLayer
 10
54.9773132595367997
 20
58.1973220614965214
 30
0.0
 11
57.381789118433403
 21
60.8891019047078714
 31
0.0
  0
LINE
  5
391
100
AcDbEntity
100
AcDbLine
  8
Rotor Gear 1:1
 62
256
370
-1
  6
ByLayer
 10
57.381789118433403
 20
60.8891019047078714
 30
0.0
 11
59.3741123385135552
 21
60.2417909542856904
 31
0.0
  0
LINE
  5
392
100
AcDbEntity
100
AcDbLine
  8
Rotor Gear 1:1
 62
256
370
-1
  6
ByLayer
 10
59.3741123385135552
 20
60.2417909542856904
 30
0.0
 11
59.7371280163082474
 21
56.6507456516496006
 31
0.0
  0
LINE
  5
393
100
AcDbEntity
100
AcDbLine
  8
Rotor Gear 1:1
 62
256
370
-1
  6
ByLayer
 10
59.7371280163082474
 20
56.6507456516496006
 30
0.0
 11
59.4553395592643028
 21
55.1931683015116477
 31
0.0
  0
LINE
  5
394
100
AcDbEntity
100
AcDbLine
  8
Rotor Gear 1:1
 62
256
370
-1
  6
ByLayer
 10
59.4553395592643028
 20
55.1931683015116477
 30
0.0
 11
58.7205343491324925
 21
53.6067306812891076
 31
0.0
  0
LINE
  5
395
100
AcDbEntity
100
AcDbLine
  8
Rotor Gear 1:1
 62
256
370
-1
  6
ByLayer
 10
58.7205343491324925
 20
53.6067306812891076
 30
0.0
 11
61.9438008467027998
 21
51.7457745468771293
 31
0.0
  0
LINE
  5
396
100
AcDbEntity
100
AcDbLine
  8
Rotor Gear 1:1
 62
256
370
-1
  6
ByLayer
 10
61.9438008467027998
 20
51.7457745468771293
 30
0.0
 11
62.9503663632327743
 21
53.1752732528690188
 31
0.0
  0
LINE
  5
397
100
AcDbEntity
100
AcDbLine
  8
Rotor Gear 1:1
 62
256
370
-1
  6
ByLayer
 10
62.9503663632327743
 20
53.1752732528690188
 30
0.0
 11
64.0715027680341791
 21
54.1482454862939022
 31
0.0
  0
LINE
  5
398
100
AcDbEntity
100
AcDbLine
  8
Rotor Gear 1:1
 62
256
370
-1
  6
ByLayer
 10
64.0715027680341791
 20
54.1482454862939022
 30
0.0
 11
67.3629605123338138
 21
55.6293888572027413
 31
0.0
  0
LINE
  5
399
100
AcDbEntity
100
AcDbLine
  8
Rotor Gear 1:1
 62
256
370
-1
  6
ByLayer
 10
67.3629605123338138
 20
55.6293888572027413
 30
0.0
 11
68.9198155767226126
 21
54.2277174031491285
 31
0.0
  0
LINE
  5
39A
100
AcDbEntity
100
AcDbLine
  8
Rotor Gear 1:1
 62
256
370
-1
  6
ByLayer
 10
68.9198155767226126
 20
54.2277174031491285
 30
0.0
 11
67.7909073329628882
 21
50.7993770459105178
 31
0.0
  0
LINE
  5
39B
100
AcDbEntity
100
AcDbLine
  8
Rotor Gear 1:1
 62
256
370
-1
  6
ByLayer
 10
67.7909073329628882
 20
50.7993770459105178
 30
0.0
 11
66.9405283306638808
 21
49.5824735346491821
 31
0.0
  0
LINE
  5
39C
100
AcDbEntity
100
AcDbLine
  8
Rotor Gear 1:1
 62
256
370
-1
  6
ByLayer
 10
66.9405283306638808
 20
49.5824735346491821
 30
0.0
 11
65.6240957129439835
 21
48.4322555818059755
 31
0.0
  0
LINE
  5
39D
100
AcDbEntity
100
AcDbLine
  8
Rotor Gear 1:1
 62
256
370
-1
  6
ByLayer
 10
65.6240957129439835
 20
48.4322555818059755
 30
0.0
 11
67.8117151459426282
 21
45.4210823828625365
 31
0.0
  0
LINE
  5
39E
100
AcDbEntity
100
AcDbLine
  8
Rotor Gear 1:1
 62
256
370
-1
  6
ByLayer
 10
67.8117151459426282
 20
45.4210823828625365
 30
0.0
 11
69.3126643142471153
 21
46.3175905228077198
 31
0.0
  0
LINE
  5
39F
100
AcDbEntity
100
AcDbLine
  8
Rotor Gear 1:1
 62
256
370
-1
  6
ByLayer
 10
69.3126643142471153
 20
46.3175905228077198
 30
0.0
 11
70.7326367656969524
 21
46.750300470707856
 31
0.0
  0
LINE
  5
3A0
100
AcDbEntity
100
AcDbLine
  8
Rotor Gear 1:1
 62
256
370
-1
  6
ByLayer
 10
70.7326367656969524
 20
46.750300470707856
 30
0.0
 11
74.3419830657292096
 21
46.7645907408326735
 31
0.0
  0
LINE
  5
3A1
100
AcDbEntity
100
AcDbLine
  8
Rotor Gear 1:1
 62
256
370
-1
  6
ByLayer
 10
74.3419830657292096
 20
46.7645907408326735
 30
0.0
 11
75.1938659797160085
 21
44.8509879259197106
 31
0.0
  0
LINE
  5
3A2
100
AcDbEntity
100
AcDbLine
  8
Rotor Gear 1:1
 62
256
370
-1
  6
ByLayer
 10
75.1938659797160085
 20
44.8509879259197106
 30
0.0
 11
72.7683309156320206
 21
42.1782614801042683
 31
0.0
  0
LINE
  5
3A3
100
AcDbEntity
100
AcDbLine
  8
Rotor Gear 1:1
 62
256
370
-1
  6
ByLayer
 10
72.7683309156320206
 20
42.1782614801042683
 30
0.0
 11
71.4965235238705077
 21
41.4123689141392504
 31
0.0
  0
LINE
  5
3A4
100
AcDbEntity
100
AcDbLine
  8
Rotor Gear 1:1
 62
256
370
-1
  6
ByLayer
 10
71.4965235238705077
 20
41.4123689141392504
 30
0.0
 11
69.825849971209891
 21
40.8971774493849409
 31
0.0
  0
LINE
  5
3A5
100
AcDbEntity
100
AcDbLine
  8
Rotor Gear 1:1
 62
256
370
-1
  6
ByLayer
 10
69.825849971209891
 20
40.8971774493849409
 30
0.0
 11
70.5997648800292836
 21
37.2564932896233927
 31
0.0
  0
LINE
  5
3A6
100
AcDbEntity
100
AcDbLine
  8
Rotor Gear 1:1
 62
256
370
0
  6
ByLayer
 10
48.2118948056858017
 20
41.807423496278119
 30
0.0
 11
55.1920265035367379
 21
39.8421512978305827
 31
0.0
  0
LINE
  5
3A7
100
AcDbEntity
100
AcDbLine
  8
Rotor Gear 1:1
 62
256
370
0
  6
ByLayer
 10
44.8079435072720571
 20
29.7174807520785009
 30
0.0
 11
43.0198533075535465
 21
36.7450882234021066
 31
0.0
  0
LINE
  5
3A8
100
AcDbEntity
100
AcDbLine
  8
Rotor Gear 1:1
 62
256
370
0
  6
ByLayer
 10
56.9801167032552485
 20
32.8145438265069345
 30
0.0
 11
51.7880752051228797
 21
27.752208553630787
 31
0.0
  0
LINE
  5
3A9
100
AcDbEntity
100
AcDbLine
  8
Rotor Gear 1:1
 62
256
370
0
  6
ByLayer
 10
51.7880752051228797
 20
27.752208553630787
 30
0.0
 11
44.8079435072720571
 21
29.717480752078437
 31
0.0
  0
LINE
  5
3AA
100
AcDbEntity
100
AcDbLine
  8
Rotor Gear 1:1
 62
256
370
0
  6
ByLayer
 10
55.1920265035367379
 20
39.842151297830668
 30
0.0
 11
56.9801167032553053
 21
32.8145438265070766
 31
0.0
  0
LINE
  5
3AB
100
AcDbEntity
100
AcDbLine
  8
Rotor Gear 1:1
 62
256
370
0
  6
ByLayer
 10
43.0198533075534897
 20
36.745088223402135
 30
0.0
 11
48.2118948056858017
 21
41.8074234962781475
 31
0.0
  0
MTEXT
  5
3AC
100
AcDbEntity
100
AcDbMText
  8
Rotor Gear 1:1 Text
 62
256
370
-1
  6
ByLayer
 10
49.0
 20
45.0000000000000142
 30
0.0
 40
3.0
 41
100.0
 71
5
 72
2
  1
Rotor\~Gear\~1:1
  7
standard
 50
0.0
 73
0
 44
1.0
  0
CIRCLE
  5
3AD
100
AcDbEntity
100
AcDbCircle
  8
Layer 7
 62
256
370
-1
  6
ByLayer
 10
49.9999850054043975
 20
34.7798160249545276
 30
0.0
 40
27.25
  0
LINE
  5
3AE
100
AcDbEntity
100
AcDbLine
  8
Motor Gear 1:1
 62
256
370
-1
  6
ByLayer
 10
270.412461086553833
 20
137.2559928500596982
 30
0.0
 11
272.1483162859447589
 21
137.4645764292073125
 31
0.0
  0
LINE
  5
3AF
100
AcDbEntity
100
AcDbLine
  8
Motor Gear 1:1
 62
256
370
-1
  6
ByLayer
 10
272.1483162859447589
 20
137.4645764292073125
 30
0.0
 11
273.6216878178952925
 21
137.2823161903102118
 31
0.0
  0
LINE
  5
3B0
100
AcDbEntity
100
AcDbLine
  8
Motor Gear 1:1
 62
256
370
-1
  6
ByLayer
 10
273.6216878178952925
 20
137.2823161903102118
 30
0.0
 11
276.924677624528556
 21
135.8272456557558883
 31
0.0
  0
LINE
  5
3B1
100
AcDbEntity
100
AcDbLine
  8
Motor Gear 1:1
 62
256
370
-1
  6
ByLayer
 10
276.924677624528556
 20
135.8272456557558883
 30
0.0
 11
276.924677624528556
 21
133.732386394153167
 31
0.0
  0
LINE
  5
3B2
100
AcDbEntity
100
AcDbLine
  8
Motor Gear 1:1
 62
256
370
-1
  6
ByLayer
 10
276.924677624528556
 20
133.732386394153167
 30
0.0
 11
273.6216878178952925
 21
132.2773158595988434
 31
0.0
  0
LINE
  5
3B3
100
AcDbEntity
100
AcDbLine
  8
Motor Gear 1:1
 62
256
370
-1
  6
ByLayer
 10
273.6216878178952925
 20
132.2773158595988434
 30
0.0
 11
272.1483162859447589
 21
132.0950556207017428
 31
0.0
  0
LINE
  5
3B4
100
AcDbEntity
100
AcDbLine
  8
Motor Gear 1:1
 62
256
370
-1
  6
ByLayer
 10
272.1483162859447589
 20
132.0950556207017428
 30
0.0
 11
270.412461086553833
 21
132.3036391998493002
 31
0.0
  0
LINE
  5
3B5
100
AcDbEntity
100
AcDbLine
  8
Motor Gear 1:1
 62
256
370
-1
  6
ByLayer
 10
270.412461086553833
 20
132.3036391998493002
 30
0.0
 11
269.6385461777344403
 21
128.6629550400877804
 31
0.0
  0
LINE
  5
3B6
100
AcDbEntity
100
AcDbLine
  8
Motor Gear 1:1
 62
256
370
-1
  6
ByLayer
 10
269.6385461777344403
 20
128.6629550400877804
 30
0.0
 11
271.3092197303950002
 21
128.1477635753334994
 31
0.0
  0
LINE
  5
3B7
100
AcDbEntity
100
AcDbLine
  8
Motor Gear 1:1
 62
256
370
-1
  6
ByLayer
 10
271.3092197303950002
 20
128.1477635753334994
 30
0.0
 11
272.5810271221565699
 21
127.381871009368453
 31
0.0
  0
LINE
  5
3B8
100
AcDbEntity
100
AcDbLine
  8
Motor Gear 1:1
 62
256
370
-1
  6
ByLayer
 10
272.5810271221565699
 20
127.381871009368453
 30
0.0
 11
275.0065621862405578
 21
124.7091445635530391
 31
0.0
  0
LINE
  5
3B9
100
AcDbEntity
100
AcDbLine
  8
Motor Gear 1:1
 62
256
370
-1
  6
ByLayer
 10
275.0065621862405578
 20
124.7091445635530391
 30
0.0
 11
274.1546792722537589
 21
122.795541748640062
 31
0.0
  0
LINE
  5
3BA
100
AcDbEntity
100
AcDbLine
  8
Motor Gear 1:1
 62
256
370
-1
  6
ByLayer
 10
274.1546792722537589
 20
122.795541748640062
 30
0.0
 11
270.5453329722214448
 21
122.8098320187648795
 31
0.0
  0
LINE
  5
3BB
100
AcDbEntity
100
AcDbLine
  8
Motor Gear 1:1
 62
256
370
-1
  6
ByLayer
 10
270.5453329722214448
 20
122.8098320187648795
 30
0.0
 11
269.1253605207716646
 21
123.2425419666650015
 31
0.0
  0
LINE
  5
3BC
100
AcDbEntity
100
AcDbLine
  8
Motor Gear 1:1
 62
256
370
-1
  6
ByLayer
 10
269.1253605207716646
 20
123.2425419666650015
 30
0.0
 11
267.6244113524671775
 21
124.1390501066102132
 31
0.0
  0
LINE
  5
3BD
100
AcDbEntity
100
AcDbLine
  8
Motor Gear 1:1
 62
256
370
-1
  6
ByLayer
 10
267.6244113524671775
 20
124.1390501066102132
 30
0.0
 11
265.436791919468476
 21
121.1278769076667743
 31
0.0
  0
LINE
  5
3BE
100
AcDbEntity
100
AcDbLine
  8
Motor Gear 1:1
 62
256
370
-1
  6
ByLayer
 10
265.436791919468476
 20
121.1278769076667743
 30
0.0
 11
266.7532245371884301
 21
119.9776589548235677
 31
0.0
  0
LINE
  5
3BF
100
AcDbEntity
100
AcDbLine
  8
Motor Gear 1:1
 62
256
370
-1
  6
ByLayer
 10
266.7532245371884301
 20
119.9776589548235677
 30
0.0
 11
267.6036035394874375
 21
118.7607554435622319
 31
0.0
  0
LINE
  5
3C0
100
AcDbEntity
100
AcDbLine
  8
Motor Gear 1:1
 62
256
370
-1
  6
ByLayer
 10
267.6036035394874375
 20
118.7607554435622319
 30
0.0
 11
268.7325117832471619
 21
115.3324150863236355
 31
0.0
  0
LINE
  5
3C1
100
AcDbEntity
100
AcDbLine
  8
Motor Gear 1:1
 62
256
370
-1
  6
ByLayer
 10
268.7325117832471619
 20
115.3324150863236355
 30
0.0
 11
267.1756567188583631
 21
113.9307436322700084
 31
0.0
  0
LINE
  5
3C2
100
AcDbEntity
100
AcDbLine
  8
Motor Gear 1:1
 62
256
370
-1
  6
ByLayer
 10
267.1756567188583631
 20
113.9307436322700084
 30
0.0
 11
263.8841989745587284
 21
115.4118870031788333
 31
0.0
  0
LINE
  5
3C3
100
AcDbEntity
100
AcDbLine
  8
Motor Gear 1:1
 62
256
370
-1
  6
ByLayer
 10
263.8841989745587284
 20
115.4118870031788333
 30
0.0
 11
262.7630625697572668
 21
116.3848592366037167
 31
0.0
  0
LINE
  5
3C4
100
AcDbEntity
100
AcDbLine
  8
Motor Gear 1:1
 62
256
370
-1
  6
ByLayer
 10
262.7630625697572668
 20
116.3848592366037167
 30
0.0
 11
261.7564970532273492
 21
117.8143579425956204
 31
0.0
  0
LINE
  5
3C5
100
AcDbEntity
100
AcDbLine
  8
Motor Gear 1:1
 62
256
370
-1
  6
ByLayer
 10
261.7564970532273492
 20
117.8143579425956204
 30
0.0
 11
258.533230555656985
 21
115.9534018081836422
 31
0.0
  0
LINE
  5
3C6
100
AcDbEntity
100
AcDbLine
  8
Motor Gear 1:1
 62
256
370
-1
  6
ByLayer
 10
258.533230555656985
 20
115.9534018081836422
 30
0.0
 11
259.2680357657887953
 21
114.3669641879610879
 31
0.0
  0
LINE
  5
3C7
100
AcDbEntity
100
AcDbLine
  8
Motor Gear 1:1
 62
256
370
-1
  6
ByLayer
 10
259.2680357657887953
 20
114.3669641879610879
 30
0.0
 11
259.5498242228327967
 21
112.9093868378231491
 31
0.0
  0
LINE
  5
3C8
100
AcDbEntity
100
AcDbLine
  8
Motor Gear 1:1
 62
256
370
-1
  6
ByLayer
 10
259.5498242228327967
 20
112.9093868378231491
 30
0.0
 11
259.1868085450381045
 21
109.3183415351870593
 31
0.0
  0
LINE
  5
3C9
100
AcDbEntity
100
AcDbLine
  8
Motor Gear 1:1
 62
256
370
-1
  6
ByLayer
 10
259.1868085450381045
 20
109.3183415351870593
 30
0.0
 11
257.1944853249579523
 21
108.6710305847648783
 31
0.0
  0
LINE
  5
3CA
100
AcDbEntity
100
AcDbLine
  8
Motor Gear 1:1
 62
256
370
-1
  6
ByLayer
 10
257.1944853249579523
 20
108.6710305847648783
 30
0.0
 11
254.790009466061349
 21
111.3628104279762283
 31
0.0
  0
LINE
  5
3CB
100
AcDbEntity
100
AcDbLine
  8
Motor Gear 1:1
 62
256
370
-1
  6
ByLayer
 10
254.790009466061349
 20
111.3628104279762283
 30
0.0
 11
254.1615014091390208
 21
112.7078226976341568
 31
0.0
  0
LINE
  5
3CC
100
AcDbEntity
100
AcDbLine
  8
Motor Gear 1:1
 62
256
370
-1
  6
ByLayer
 10
254.1615014091390208
 20
112.7078226976341568
 30
0.0
 11
253.8233051599070222
 21
114.4228709723570461
 31
0.0
  0
LINE
  5
3CD
100
AcDbEntity
100
AcDbLine
  8
Motor Gear 1:1
 62
256
370
-1
  6
ByLayer
 10
253.8233051599070222
 20
114.4228709723570461
 30
0.0
 11
250.1217005845824701
 21
114.0340329621038791
 31
0.0
  0
LINE
  5
3CE
100
AcDbEntity
100
AcDbLine
  8
Motor Gear 1:1
 62
256
370
-1
  6
ByLayer
 10
250.1217005845824701
 20
114.0340329621038791
 30
0.0
 11
250.147773420936943
 21
112.285892412067895
 31
0.0
  0
LINE
  5
3CF
100
AcDbEntity
100
AcDbLine
  8
Motor Gear 1:1
 62
256
370
-1
  6
ByLayer
 10
250.147773420936943
 20
112.285892412067895
 30
0.0
 11
249.8125858833922166
 21
110.8395966203676011
 31
0.0
  0
LINE
  5
3D0
100
AcDbEntity
100
AcDbLine
  8
Motor Gear 1:1
 62
256
370
-1
  6
ByLayer
 10
249.8125858833922166
 20
110.8395966203676011
 30
0.0
 11
248.0203220035016045
 21
107.7068330941940673
 31
0.0
  0
LINE
  5
3D1
100
AcDbEntity
100
AcDbLine
  8
Motor Gear 1:1
 62
256
370
-1
  6
ByLayer
 10
248.0203220035016045
 20
107.7068330941940673
 30
0.0
 11
245.9369948042325973
 21
107.9256953278834885
 31
0.0
  0
LINE
  5
3D2
100
AcDbEntity
100
AcDbLine
  8
Motor Gear 1:1
 62
256
370
-1
  6
ByLayer
 10
245.9369948042325973
 20
107.9256953278834885
 30
0.0
 11
244.8351623007231126
 21
111.3628104279762283
 31
0.0
  0
LINE
  5
3D3
100
AcDbEntity
100
AcDbLine
  8
Motor Gear 1:1
 62
256
370
-1
  6
ByLayer
 10
244.8351623007231126
 20
111.3628104279762283
 30
0.0
 11
244.8078360565768605
 21
112.8472130144683803
 31
0.0
  0
LINE
  5
3D4
100
AcDbEntity
100
AcDbLine
  8
Motor Gear 1:1
 62
256
370
-1
  6
ByLayer
 10
244.8078360565768605
 20
112.8472130144683803
 30
0.0
 11
245.1969245707260256
 21
114.5514807385457061
 31
0.0
  0
LINE
  5
3D5
100
AcDbEntity
100
AcDbLine
  8
Motor Gear 1:1
 62
256
370
-1
  6
ByLayer
 10
245.1969245707260256
 20
114.5514807385457061
 30
0.0
 11
241.6570220369031858
 21
115.7016978030771668
 31
0.0
  0
LINE
  5
3D6
100
AcDbEntity
100
AcDbLine
  8
Motor Gear 1:1
 62
256
370
-1
  6
ByLayer
 10
241.6570220369031858
 20
115.7016978030771668
 30
0.0
 11
240.9698498761053429
 21
114.0942009776671995
 31
0.0
  0
LINE
  5
3D7
100
AcDbEntity
100
AcDbLine
  8
Motor Gear 1:1
 62
256
370
-1
  6
ByLayer
 10
240.9698498761053429
 20
114.0942009776671995
 30
0.0
 11
240.0753475439516365
 21
112.9093868378231491
 31
0.0
  0
LINE
  5
3D8
100
AcDbEntity
100
AcDbLine
  8
Motor Gear 1:1
 62
256
370
-1
  6
ByLayer
 10
240.0753475439516365
 20
112.9093868378231491
 30
0.0
 11
237.1637025631550841
 21
110.776419893117037
 31
0.0
  0
LINE
  5
3D9
100
AcDbEntity
100
AcDbLine
  8
Motor Gear 1:1
 62
256
370
-1
  6
ByLayer
 10
237.1637025631550841
 20
110.776419893117037
 30
0.0
 11
235.3496279663889936
 21
111.8238504122300583
 31
0.0
  0
LINE
  5
3DA
100
AcDbEntity
100
AcDbLine
  8
Motor Gear 1:1
 62
256
370
-1
  6
ByLayer
 10
235.3496279663889936
 20
111.8238504122300583
 30
0.0
 11
235.7409727922257616
 21
115.4118870031788475
 31
0.0
  0
LINE
  5
3DB
100
AcDbEntity
100
AcDbLine
  8
Motor Gear 1:1
 62
256
370
-1
  6
ByLayer
 10
235.7409727922257616
 20
115.4118870031788475
 30
0.0
 11
236.3198419920226456
 21
116.7789613819199701
 31
0.0
  0
LINE
  5
3DC
100
AcDbEntity
100
AcDbLine
  8
Motor Gear 1:1
 62
256
370
-1
  6
ByLayer
 10
236.3198419920226456
 20
116.7789613819199701
 30
0.0
 11
237.3682745267196879
 21
118.1778746281823658
 31
0.0
  0
LINE
  5
3DD
100
AcDbEntity
100
AcDbLine
  8
Motor Gear 1:1
 62
256
370
-1
  6
ByLayer
 10
237.3682745267196879
 20
118.1778746281823658
 30
0.0
 11
234.6022877900278729
 21
120.6683417234124249
 31
0.0
  0
LINE
  5
3DE
100
AcDbEntity
100
AcDbLine
  8
Motor Gear 1:1
 62
256
370
-1
  6
ByLayer
 10
234.6022877900278729
 20
120.6683417234124249
 30
0.0
 11
233.3207027515165066
 21
119.4792654640893659
 31
0.0
  0
LINE
  5
3DF
100
AcDbEntity
100
AcDbLine
  8
Motor Gear 1:1
 62
256
370
-1
  6
ByLayer
 10
233.3207027515165066
 20
119.4792654640893659
 30
0.0
 11
232.0215682272970241
 21
118.7607554435622319
 31
0.0
  0
LINE
  5
3E0
100
AcDbEntity
100
AcDbLine
  8
Motor Gear 1:1
 62
256
370
-1
  6
ByLayer
 10
232.0215682272970241
 20
118.7607554435622319
 30
0.0
 11
228.4942006597035515
 21
117.9963667892850481
 31
0.0
  0
LINE
  5
3E1
100
AcDbEntity
100
AcDbLine
  8
Motor Gear 1:1
 62
256
370
-1
  6
ByLayer
 10
228.4942006597035515
 20
117.9963667892850481
 30
0.0
 11
227.2630068783173556
 21
119.6911073705085755
 31
0.0
  0
LINE
  5
3E2
100
AcDbEntity
100
AcDbLine
  8
Motor Gear 1:1
 62
256
370
-1
  6
ByLayer
 10
227.2630068783173556
 20
119.6911073705085755
 30
0.0
 11
229.0798387945629884
 21
122.809832018764908
 31
0.0
  0
LINE
  5
3E3
100
AcDbEntity
100
AcDbLine
  8
Motor Gear 1:1
 62
256
370
-1
  6
ByLayer
 10
229.0798387945629884
 20
122.809832018764908
 30
0.0
 11
230.1646237084680706
 21
123.8231664703573927
 31
0.0
  0
LINE
  5
3E4
100
AcDbEntity
100
AcDbLine
  8
Motor Gear 1:1
 62
256
370
-1
  6
ByLayer
 10
230.1646237084680706
 20
123.8231664703573927
 30
0.0
 11
231.691394320919386
 21
124.6747988804481793
 31
0.0
  0
LINE
  5
3E5
100
AcDbEntity
100
AcDbLine
  8
Motor Gear 1:1
 62
256
370
-1
  6
ByLayer
 10
231.691394320919386
 20
124.6747988804481793
 30
0.0
 11
230.1776605708011516
 21
128.074810089644842
 31
0.0
  0
LINE
  5
3E6
100
AcDbEntity
100
AcDbLine
  8
Motor Gear 1:1
 62
256
370
-1
  6
ByLayer
 10
230.1776605708011516
 20
128.074810089644842
 30
0.0
 11
228.5232822077452965
 21
127.5099797677651168
 31
0.0
  0
LINE
  5
3E7
100
AcDbEntity
100
AcDbLine
  8
Motor Gear 1:1
 62
256
370
-1
  6
ByLayer
 10
228.5232822077452965
 20
127.5099797677651168
 30
0.0
 11
227.0441446446278917
 21
127.3818710093684814
 31
0.0
  0
LINE
  5
3E8
100
AcDbEntity
100
AcDbLine
  8
Motor Gear 1:1
 62
256
370
-1
  6
ByLayer
 10
227.0441446446278917
 20
127.3818710093684814
 30
0.0
 11
223.5107605419715924
 21
128.1184315233957705
 31
0.0
  0
LINE
  5
3E9
100
AcDbEntity
100
AcDbLine
  8
Motor Gear 1:1
 62
256
370
-1
  6
ByLayer
 10
223.5107605419715924
 20
128.1184315233957705
 30
0.0
 11
223.075292386280239
 21
130.1674139278716495
 31
0.0
  0
LINE
  5
3EA
100
AcDbEntity
100
AcDbLine
  8
Motor Gear 1:1
 62
256
370
-1
  6
ByLayer
 10
223.075292386280239
 20
130.1674139278716495
 30
0.0
 11
226.0034839488891407
 21
132.2773158595988718
 31
0.0
  0
LINE
  5
3EB
100
AcDbEntity
100
AcDbLine
  8
Motor Gear 1:1
 62
256
370
-1
  6
ByLayer
 10
226.0034839488891407
 20
132.2773158595988718
 30
0.0
 11
227.4069098185266
 21
132.7619209763118704
 31
0.0
  0
LINE
  5
3EC
100
AcDbEntity
100
AcDbLine
  8
Motor Gear 1:1
 62
256
370
-1
  6
ByLayer
 10
227.4069098185266
 20
132.7619209763118704
 30
0.0
 11
229.1480300412923157
 21
132.9188598905425636
 31
0.0
  0
LINE
  5
3ED
100
AcDbEntity
100
AcDbLine
  8
Motor Gear 1:1
 62
256
370
-1
  6
ByLayer
 10
229.1480300412923157
 20
132.9188598905425636
 30
0.0
 11
229.1480300412923157
 21
136.6407721593664917
 31
0.0
  0
LINE
  5
3EE
100
AcDbEntity
100
AcDbLine
  8
Motor Gear 1:1
 62
256
370
-1
  6
ByLayer
 10
229.1480300412923157
 20
136.6407721593664917
 30
0.0
 11
227.4069098185266
 21
136.7977110735971848
 31
0.0
  0
LINE
  5
3EF
100
AcDbEntity
100
AcDbLine
  8
Motor Gear 1:1
 62
256
370
-1
  6
ByLayer
 10
227.4069098185266
 20
136.7977110735971848
 30
0.0
 11
226.0034839488891691
 21
137.2823161903102118
 31
0.0
  0
LINE
  5
3F0
100
AcDbEntity
100
AcDbLine
  8
Motor Gear 1:1
 62
256
370
-1
  6
ByLayer
 10
226.0034839488891691
 20
137.2823161903102118
 30
0.0
 11
223.075292386280239
 21
139.3922181220374341
 31
0.0
  0
LINE
  5
3F1
100
AcDbEntity
100
AcDbLine
  8
Motor Gear 1:1
 62
256
370
-1
  6
ByLayer
 10
223.075292386280239
 20
139.3922181220374341
 30
0.0
 11
223.5107605419715924
 21
141.4412005265132848
 31
0.0
  0
LINE
  5
3F2
100
AcDbEntity
100
AcDbLine
  8
Motor Gear 1:1
 62
256
370
-1
  6
ByLayer
 10
223.5107605419715924
 20
141.4412005265132848
 30
0.0
 11
227.0441446446278917
 21
142.1777610405405881
 31
0.0
  0
LINE
  5
3F3
100
AcDbEntity
100
AcDbLine
  8
Motor Gear 1:1
 62
256
370
-1
  6
ByLayer
 10
227.0441446446278917
 20
142.1777610405405881
 30
0.0
 11
228.5232822077452965
 21
142.0496522821439385
 31
0.0
  0
LINE
  5
3F4
100
AcDbEntity
100
AcDbLine
  8
Motor Gear 1:1
 62
256
370
-1
  6
ByLayer
 10
228.5232822077452965
 20
142.0496522821439385
 30
0.0
 11
230.1776605708011516
 21
141.4848219602642132
 31
0.0
  0
LINE
  5
3F5
100
AcDbEntity
100
AcDbLine
  8
Motor Gear 1:1
 62
256
370
-1
  6
ByLayer
 10
230.1776605708011516
 20
141.4848219602642132
 30
0.0
 11
231.691394320919386
 21
144.884833169460876
 31
0.0
  0
LINE
  5
3F6
100
AcDbEntity
100
AcDbLine
  8
Motor Gear 1:1
 62
256
370
-1
  6
ByLayer
 10
231.691394320919386
 20
144.884833169460876
 30
0.0
 11
230.1646237084680706
 21
145.7364655795516626
 31
0.0
  0
LINE
  5
3F7
100
AcDbEntity
100
AcDbLine
  8
Motor Gear 1:1
 62
256
370
-1
  6
ByLayer
 10
230.1646237084680706
 20
145.7364655795516626
 30
0.0
 11
229.0798387945629884
 21
146.7498000311441615
 31
0.0
  0
LINE
  5
3F8
100
AcDbEntity
100
AcDbLine
  8
Motor Gear 1:1
 62
256
370
-1
  6
ByLayer
 10
229.0798387945629884
 20
146.7498000311441615
 30
0.0
 11
227.2630068783173556
 21
149.8685246794004797
 31
0.0
  0
LINE
  5
3F9
100
AcDbEntity
100
AcDbLine
  8
Motor Gear 1:1
 62
256
370
-1
  6
ByLayer
 10
227.2630068783173556
 20
149.8685246794004797
 30
0.0
 11
228.4942006597035515
 21
151.5632652606240072
 31
0.0
  0
LINE
  5
3FA
100
AcDbEntity
100
AcDbLine
  8
Motor Gear 1:1
 62
256
370
-1
  6
ByLayer
 10
228.4942006597035515
 20
151.5632652606240072
 30
0.0
 11
232.0215682272970241
 21
150.7988766063467949
 31
0.0
  0
LINE
  5
3FB
100
AcDbEntity
100
AcDbLine
  8
Motor Gear 1:1
 62
256
370
-1
  6
ByLayer
 10
232.0215682272970241
 20
150.7988766063467949
 30
0.0
 11
233.3207027515165066
 21
150.0803665858196894
 31
0.0
  0
LINE
  5
3FC
100
AcDbEntity
100
AcDbLine
  8
Motor Gear 1:1
 62
256
370
-1
  6
ByLayer
 10
233.3207027515165066
 20
150.0803665858196894
 30
0.0
 11
234.6022877900278729
 21
148.8912903264966303
 31
0.0
  0
LINE
  5
3FD
100
AcDbEntity
100
AcDbLine
  8
Motor Gear 1:1
 62
256
370
-1
  6
ByLayer
 10
234.6022877900278729
 20
148.8912903264966303
 30
0.0
 11
237.3682745267196879
 21
151.3817574217267179
 31
0.0
  0
LINE
  5
3FE
100
AcDbEntity
100
AcDbLine
  8
Motor Gear 1:1
 62
256
370
-1
  6
ByLayer
 10
237.3682745267196879
 20
151.3817574217267179
 30
0.0
 11
236.3198419920226456
 21
152.7806706679890851
 31
0.0
  0
LINE
  5
3FF
100
AcDbEntity
100
AcDbLine
  8
Motor Gear 1:1
 62
256
370
-1
  6
ByLayer
 10
236.3198419920226456
 20
152.7806706679890851
 30
0.0
 11
235.7409727922257332
 21
154.1477450467302219
 31
0.0
  0
LINE
  5
400
100
AcDbEntity
100
AcDbLine
  8
Motor Gear 1:1
 62
256
370
-1
  6
ByLayer
 10
235.7409727922257332
 20
154.1477450467302219
 30
0.0
 11
235.349627966389022
 21
157.7357816376790254
 31
0.0
  0
LINE
  5
401
100
AcDbEntity
100
AcDbLine
  8
Motor Gear 1:1
 62
256
370
-1
  6
ByLayer
 10
235.349627966389022
 20
157.7357816376790254
 30
0.0
 11
237.1637025631551126
 21
158.7832121567920183
 31
0.0
  0
LINE
  5
402
100
AcDbEntity
100
AcDbLine
  8
Motor Gear 1:1
 62
256
370
-1
  6
ByLayer
 10
237.1637025631551126
 20
158.7832121567920183
 30
0.0
 11
240.0753475439516649
 21
156.6502452120859061
 31
0.0
  0
LINE
  5
403
100
AcDbEntity
100
AcDbLine
  8
Motor Gear 1:1
 62
256
370
-1
  6
ByLayer
 10
240.0753475439516649
 20
156.6502452120859061
 30
0.0
 11
240.9698498761053429
 21
155.46543107224187
 31
0.0
  0
LINE
  5
404
100
AcDbEntity
100
AcDbLine
  8
Motor Gear 1:1
 62
256
370
-1
  6
ByLayer
 10
240.9698498761053429
 20
155.46543107224187
 30
0.0
 11
241.6570220369031858
 21
153.8579342468318885
 31
0.0
  0
LINE
  5
405
100
AcDbEntity
100
AcDbLine
  8
Motor Gear 1:1
 62
256
370
-1
  6
ByLayer
 10
241.6570220369031858
 20
153.8579342468318885
 30
0.0
 11
245.1969245707260541
 21
155.0081513113633491
 31
0.0
  0
LINE
  5
406
100
AcDbEntity
100
AcDbLine
  8
Motor Gear 1:1
 62
256
370
-1
  6
ByLayer
 10
245.1969245707260541
 20
155.0081513113633491
 30
0.0
 11
244.8078360565768605
 21
156.7124190354406608
 31
0.0
  0
LINE
  5
407
100
AcDbEntity
100
AcDbLine
  8
Motor Gear 1:1
 62
256
370
-1
  6
ByLayer
 10
244.8078360565768605
 20
156.7124190354406608
 30
0.0
 11
244.8351623007231126
 21
158.1968216219328269
 31
0.0
  0
LINE
  5
408
100
AcDbEntity
100
AcDbLine
  8
Motor Gear 1:1
 62
256
370
-1
  6
ByLayer
 10
244.8351623007231126
 20
158.1968216219328269
 30
0.0
 11
245.9369948042325973
 21
161.6339367220255383
 31
0.0
  0
LINE
  5
409
100
AcDbEntity
100
AcDbLine
  8
Motor Gear 1:1
 62
256
370
-1
  6
ByLayer
 10
245.9369948042325973
 20
161.6339367220255383
 30
0.0
 11
248.0203220035016329
 21
161.8527989557149738
 31
0.0
  0
LINE
  5
40A
100
AcDbEntity
100
AcDbLine
  8
Motor Gear 1:1
 62
256
370
-1
  6
ByLayer
 10
248.0203220035016329
 20
161.8527989557149738
 30
0.0
 11
249.812585883392245
 21
158.7200354295414684
 31
0.0
  0
LINE
  5
40B
100
AcDbEntity
100
AcDbLine
  8
Motor Gear 1:1
 62
256
370
-1
  6
ByLayer
 10
249.812585883392245
 20
158.7200354295414684
 30
0.0
 11
250.1477734209369714
 21
157.2737396378411745
 31
0.0
  0
LINE
  5
40C
100
AcDbEntity
100
AcDbLine
  8
Motor Gear 1:1
 62
256
370
-1
  6
ByLayer
 10
250.1477734209369714
 20
157.2737396378411745
 30
0.0
 11
250.1217005845824701
 21
155.5255990878051762
 31
0.0
  0
LINE
  5
40D
100
AcDbEntity
100
AcDbLine
  8
Motor Gear 1:1
 62
256
370
-1
  6
ByLayer
 10
250.1217005845824701
 20
155.5255990878051762
 30
0.0
 11
253.8233051599070507
 21
155.1367610775520234
 31
0.0
  0
LINE
  5
40E
100
AcDbEntity
100
AcDbLine
  8
Motor Gear 1:1
 62
256
370
-1
  6
ByLayer
 10
253.8233051599070507
 20
155.1367610775520234
 30
0.0
 11
254.1615014091390492
 21
156.8518093522749268
 31
0.0
  0
LINE
  5
40F
100
AcDbEntity
100
AcDbLine
  8
Motor Gear 1:1
 62
256
370
-1
  6
ByLayer
 10
254.1615014091390492
 20
156.8518093522749268
 30
0.0
 11
254.790009466061349
 21
158.1968216219328269
 31
0.0
  0
LINE
  5
410
100
AcDbEntity
100
AcDbLine
  8
Motor Gear 1:1
 62
256
370
-1
  6
ByLayer
 10
254.790009466061349
 20
158.1968216219328269
 30
0.0
 11
257.1944853249579523
 21
160.8886014651441769
 31
0.0
  0
LINE
  5
411
100
AcDbEntity
100
AcDbLine
  8
Motor Gear 1:1
 62
256
370
-1
  6
ByLayer
 10
257.1944853249579523
 20
160.8886014651441769
 30
0.0
 11
259.1868085450381045
 21
160.2412905147219817
 31
0.0
  0
LINE
  5
412
100
AcDbEntity
100
AcDbLine
  8
Motor Gear 1:1
 62
256
370
-1
  6
ByLayer
 10
259.1868085450381045
 20
160.2412905147219817
 30
0.0
 11
259.5498242228327967
 21
156.6502452120859061
 31
0.0
  0
LINE
  5
413
100
AcDbEntity
100
AcDbLine
  8
Motor Gear 1:1
 62
256
370
-1
  6
ByLayer
 10
259.5498242228327967
 20
156.6502452120859061
 30
0.0
 11
259.2680357657887953
 21
155.1926678619479389
 31
0.0
  0
LINE
  5
414
100
AcDbEntity
100
AcDbLine
  8
Motor Gear 1:1
 62
256
370
-1
  6
ByLayer
 10
259.2680357657887953
 20
155.1926678619479389
 30
0.0
 11
258.5332305556570418
 21
153.6062302417253989
 31
0.0
  0
LINE
  5
415
100
AcDbEntity
100
AcDbLine
  8
Motor Gear 1:1
 62
256
370
-1
  6
ByLayer
 10
258.5332305556570418
 20
153.6062302417253989
 30
0.0
 11
261.7564970532273492
 21
151.7452741073134348
 31
0.0
  0
LINE
  5
416
100
AcDbEntity
100
AcDbLine
  8
Motor Gear 1:1
 62
256
370
-1
  6
ByLayer
 10
261.7564970532273492
 20
151.7452741073134348
 30
0.0
 11
262.7630625697573237
 21
153.1747728133053101
 31
0.0
  0
LINE
  5
417
100
AcDbEntity
100
AcDbLine
  8
Motor Gear 1:1
 62
256
370
-1
  6
ByLayer
 10
262.7630625697573237
 20
153.1747728133053101
 30
0.0
 11
263.8841989745586716
 21
154.1477450467302219
 31
0.0
  0
LINE
  5
418
100
AcDbEntity
100
AcDbLine
  8
Motor Gear 1:1
 62
256
370
-1
  6
ByLayer
 10
263.8841989745586716
 20
154.1477450467302219
 30
0.0
 11
267.1756567188583631
 21
155.6288884176390468
 31
0.0
  0
LINE
  5
419
100
AcDbEntity
100
AcDbLine
  8
Motor Gear 1:1
 62
256
370
-1
  6
ByLayer
 10
267.1756567188583631
 20
155.6288884176390468
 30
0.0
 11
268.7325117832471619
 21
154.2272169635854198
 31
0.0
  0
LINE
  5
41A
100
AcDbEntity
100
AcDbLine
  8
Motor Gear 1:1
 62
256
370
-1
  6
ByLayer
 10
268.7325117832471619
 20
154.2272169635854198
 30
0.0
 11
267.6036035394874375
 21
150.7988766063468233
 31
0.0
  0
LINE
  5
41B
100
AcDbEntity
100
AcDbLine
  8
Motor Gear 1:1
 62
256
370
-1
  6
ByLayer
 10
267.6036035394874375
 20
150.7988766063468233
 30
0.0
 11
266.7532245371884301
 21
149.5819730950854591
 31
0.0
  0
LINE
  5
41C
100
AcDbEntity
100
AcDbLine
  8
Motor Gear 1:1
 62
256
370
-1
  6
ByLayer
 10
266.7532245371884301
 20
149.5819730950854591
 30
0.0
 11
265.4367919194685328
 21
148.431755142242281
 31
0.0
  0
LINE
  5
41D
100
AcDbEntity
100
AcDbLine
  8
Motor Gear 1:1
 62
256
370
-1
  6
ByLayer
 10
265.4367919194685328
 20
148.431755142242281
 30
0.0
 11
267.6244113524671775
 21
145.4205819432988278
 31
0.0
  0
LINE
  5
41E
100
AcDbEntity
100
AcDbLine
  8
Motor Gear 1:1
 62
256
370
-1
  6
ByLayer
 10
267.6244113524671775
 20
145.4205819432988278
 30
0.0
 11
269.1253605207716646
 21
146.3170900832440111
 31
0.0
  0
LINE
  5
41F
100
AcDbEntity
100
AcDbLine
  8
Motor Gear 1:1
 62
256
370
-1
  6
ByLayer
 10
269.1253605207716646
 20
146.3170900832440111
 30
0.0
 11
270.5453329722214448
 21
146.7498000311441331
 31
0.0
  0
LINE
  5
420
100
AcDbEntity
100
AcDbLine
  8
Motor Gear 1:1
 62
256
370
-1
  6
ByLayer
 10
270.5453329722214448
 20
146.7498000311441331
 30
0.0
 11
274.1546792722537589
 21
146.7640903012689932
 31
0.0
  0
LINE
  5
421
100
AcDbEntity
100
AcDbLine
  8
Motor Gear 1:1
 62
256
370
-1
  6
ByLayer
 10
274.1546792722537589
 20
146.7640903012689932
 30
0.0
 11
275.0065621862405578
 21
144.8504874863560303
 31
0.0
  0
LINE
  5
422
100
AcDbEntity
100
AcDbLine
  8
Motor Gear 1:1
 62
256
370
-1
  6
ByLayer
 10
275.0065621862405578
 20
144.8504874863560303
 30
0.0
 11
272.5810271221565699
 21
142.1777610405405881
 31
0.0
  0
LINE
  5
423
100
AcDbEntity
100
AcDbLine
  8
Motor Gear 1:1
 62
256
370
-1
  6
ByLayer
 10
272.5810271221565699
 20
142.1777610405405881
 30
0.0
 11
271.309219730395057
 21
141.4118684745755559
 31
0.0
  0
LINE
  5
424
100
AcDbEntity
100
AcDbLine
  8
Motor Gear 1:1
 62
256
370
-1
  6
ByLayer
 10
271.309219730395057
 20
141.4118684745755559
 30
0.0
 11
269.6385461777344403
 21
140.8966770098212464
 31
0.0
  0
LINE
  5
425
100
AcDbEntity
100
AcDbLine
  8
Motor Gear 1:1
 62
256
370
-1
  6
ByLayer
 10
269.6385461777344403
 20
140.8966770098212464
 30
0.0
 11
270.412461086553833
 21
137.2559928500596982
 31
0.0
  0
LINE
  5
426
100
AcDbEntity
100
AcDbLine
  8
Motor Gear 1:1
 62
256
370
-1
  6
ByLayer
 10
252.3532716944743015
 20
136.9243155853908434
 30
0.0
 11
247.2720907293835921
 21
136.9243155853908434
 31
0.0
  0
ARC
  5
427
100
AcDbEntity
  8
Motor Gear 1:1
 62
256
370
-1
  6
ByLayer
100
AcDbCircle
 10
249.8126812119289752
 20
134.7793155853908331
 30
0.0
 40
3.3250000000000002
100
AcDbArc
 50
319.8258680010101784
 51
40.1741319989898216
  0
ARC
  5
428
100
AcDbEntity
  8
Motor Gear 1:1
 62
256
370
-1
  6
ByLayer
100
AcDbCircle
 10
249.8126812119289752
 20
134.7793155853908331
 30
0.0
 40
3.3250000000000002
100
AcDbArc
 50
139.8258680010101784
 51
220.1741319989898216
  0
LINE
  5
429
100
AcDbEntity
100
AcDbLine
  8
Motor Gear 1:1
 62
256
370
-1
  6
ByLayer
 10
252.3532716944743015
 20
132.6343155853908513
 30
0.0
 11
247.2720907293835921
 21
132.6343155853908513
 31
0.0
  0
MTEXT
  5
42A
100
AcDbEntity
100
AcDbMText
  8
Motor Gear 1:1 Text
 62
256
370
-1
  6
ByLayer
 10
249.8126962065245493
 20
143.106189058763789
 30
0.0
 40
3.0
 41
100.0
 71
5
 72
2
  1
Motor\~Gear\~1:1
  7
standard
 50
0.0
 73
0
 44
1.0
  0
ENDSEC
  0
SECTION
  2
OBJECTS
  0
DICTIONARY
  5
C
100
AcDbDictionary
280
0
281
1
  3
ACAD_GROUP
350
D
  3
ACAD_LAYOUT
350
1A
  3
ACAD_MLINESTYLE
350
17
  3
ACAD_PLOTSETTINGS
350
19
  3
ACAD_PLOTSTYLENAME
350
E
  3
AcDbVariableDictionary
350
42B
  0
DICTIONARY
  5
D
100
AcDbDictionary
280
0
281
1
  0
ACDBDICTIONARYWDFLT
  5
E
100
AcDbDictionary
281
1
  3
Normal
350
F
100
AcDbDictionaryWithDefault
340
F
  0
ACDBPLACEHOLDER
  5
F
  0
DICTIONARY
  5
17
100
AcDbDictionary
280
0
281
1
  3
Standard
350
18
  0
MLINESTYLE
  5
18
100
AcDbMlineStyle
  2
STANDARD
 70
0
  3

 62
256
 51
90.0
 52
90.0
 71
2
 49
0.5
 62
256
  6
BYLAYER
 49
-0.5
 62
256
  6
BYLAYER
  0
DICTIONARY
  5
19
100
AcDbDictionary
280
0
281
1
  0
DICTIONARY
  5
1A
100
AcDbDictionary
281
1
  3
Layout1
350
1E
  3
Layout2
350
26
  3
Model
350
22
  0
LAYOUT
  5
1E
100
AcDbPlotSettings
  1

  2
C:\Program Files\AutoCAD 2002\plotters\DWF ePlot (optimized for plotting).pc3
  4

  6

 40
0.0
 41
0.0
 42
0.0
 43
0.0
 44
0.0
 45
0.0
 46
0.0
 47
0.0
 48
0.0
 49
0.0
140
0.0
141
0.0
142
1.0
143
1.0
 70
688
 72
0
 73
0
 74
5
  7

 75
16
147
1.0
148
0.0
149
0.0
100
AcDbLayout
  1
Layout1
 70
1
 71
1
 10
0.0
 20
0.0
 11
420.0
 21
297.0
 12
0.0
 22
0.0
 32
0.0
 14
100000000000000000000.0
 24
100000000000000000000.0
 34
100000000000000000000.0
 15
-100000000000000000000.0
 25
-100000000000000000000.0
 35
-100000000000000000000.0
146
0.0
 13
0.0
 23
0.0
 33
0.0
 16
1.0
 26
0.0
 36
0.0
 17
0.0
 27
1.0
 37
0.0
 76
0
330
1B
  0
LAYOUT
  5
22
100
AcDbPlotSettings
  1

  2
C:\Program Files\AutoCAD 2002\plotters\DWF ePlot (optimized for plotting).pc3
  4

  6

 40
0.0
 41
0.0
 42
0.0
 43
0.0
 44
0.0
 45
0.0
 46
0.0
 47
0.0
 48
0.0
 49
0.0
140
0.0
141
0.0
142
1.0
143
1.0
 70
1712
 72
0
 73
0
 74
0
  7

 75
0
147
1.0
148
0.0
149
0.0
100
AcDbLayout
  1
Model
 70
1
 71
0
 10
0.0
 20
0.0
 11
12.0
 21
9.0
 12
0.0
 22
0.0
 32
0.0
 14
0.0
 24
0.0
 34
0.0
 15
0.0
 25
0.0
 35
0.0
146
0.0
 13
0.0
 23
0.0
 33
0.0
 16
1.0
 26
0.0
 36
0.0
 17
0.0
 27
1.0
 37
0.0
 76
0
330
1F
  0
LAYOUT
  5
26
100
AcDbPlotSettings
  1

  2
C:\Program Files\AutoCAD 2002\plotters\DWF ePlot (optimized for plotting).pc3
  4

  6

 40
0.0
 41
0.0
 42
0.0
 43
0.0
 44
0.0
 45
0.0
 46
0.0
 47
0.0
 48
0.0
 49
0.0
140
0.0
141
0.0
142
1.0
143
1.0
 70
688
 72
0
 73
0
 74
5
  7

 75
16
147
1.0
148
0.0
149
0.0
100
AcDbLayout
  1
Layout2
 70
1
 71
2
 10
0.0
 20
0.0
 11
12.0
 21
9.0
 12
0.0
 22
0.0
 32
0.0
 14
0.0
 24
0.0
 34
0.0
 15
0.0
 25
0.0
 35
0.0
146
0.0
 13
0.0
 23
0.0
 33
0.0
 16
1.0
 26
0.0
 36
0.0
 17
0.0
 27
1.0
 37
0.0
 76
0
330
23
  0
DICTIONARY
  5
42B
100
AcDbDictionary
281
1
  3
DIMASSOC
350
42D
  3
HIDETEXT
350
42C
  0
DICTIONARYVAR
  5
42C
100
DictionaryVariables
280
0
  1
2
  0
DICTIONARYVAR
  5
42D
100
DictionaryVariables
280
0
  1
1
  0
ENDSEC
  0
EOF
