  0
SECTION
  2
TABLES
  0
TABLE
  2
LAYER
  0
LAYER
  2
1
 62
7
 70
0
  6
Continuous
  0
ENDTAB
  0
ENDSEC
  0
SECTION
  2
ENTITIES
  0
LINE
  8
1
 10
22.500000
 20
0.000000
 30
0.000000
 11
23.492315
 21
0.000000
 31
0.000000
  0
LINE
  8
1
 10
23.492315
 20
0.000000
 30
0.000000
 11
23.495893
 21
0.000042
 31
0.000000
  0
LINE
  8
1
 10
23.495893
 20
0.000042
 30
0.000000
 11
23.500364
 21
0.000141
 31
0.000000
  0
LINE
  8
1
 10
23.500364
 20
0.000141
 30
0.000000
 11
23.506624
 21
0.000333
 31
0.000000
  0
LINE
  8
1
 10
23.506624
 20
0.000333
 30
0.000000
 11
23.514668
 21
0.000650
 31
0.000000
  0
LINE
  8
1
 10
23.514668
 20
0.000650
 30
0.000000
 11
23.524496
 21
0.001124
 31
0.000000
  0
LINE
  8
1
 10
23.524496
 20
0.001124
 30
0.000000
 11
23.536106
 21
0.001784
 31
0.000000
  0
LINE
  8
1
 10
23.536106
 20
0.001784
 30
0.000000
 11
23.549496
 21
0.002663
 31
0.000000
  0
LINE
  8
1
 10
23.549496
 20
0.002663
 30
0.000000
 11
23.564659
 21
0.003791
 31
0.000000
  0
LINE
  8
1
 10
23.564659
 20
0.003791
 30
0.000000
 11
23.581596
 21
0.005200
 31
0.000000
  0
LINE
  8
1
 10
23.581596
 20
0.005200
 30
0.000000
 11
23.600304
 21
0.006920
 31
0.000000
  0
LINE
  8
1
 10
23.600304
 20
0.006920
 30
0.000000
 11
23.620773
 21
0.008983
 31
0.000000
  0
LINE
  8
1
 10
23.620773
 20
0.008983
 30
0.000000
 11
23.643003
 21
0.011419
 31
0.000000
  0
LINE
  8
1
 10
23.643003
 20
0.011419
 30
0.000000
 11
23.666988
 21
0.014259
 31
0.000000
  0
LINE
  8
1
 10
23.666988
 20
0.014259
 30
0.000000
 11
23.692720
 21
0.017534
 31
0.000000
  0
LINE
  8
1
 10
23.692720
 20
0.017534
 30
0.000000
 11
23.720198
 21
0.021275
 31
0.000000
  0
LINE
  8
1
 10
23.720198
 20
0.021275
 30
0.000000
 11
23.749411
 21
0.025512
 31
0.000000
  0
LINE
  8
1
 10
23.749411
 20
0.025512
 30
0.000000
 11
23.780355
 21
0.030276
 31
0.000000
  0
LINE
  8
1
 10
23.780355
 20
0.030276
 30
0.000000
 11
23.813021
 21
0.035597
 31
0.000000
  0
LINE
  8
1
 10
23.813021
 20
0.035597
 30
0.000000
 11
23.847403
 21
0.041506
 31
0.000000
  0
LINE
  8
1
 10
23.847403
 20
0.041506
 30
0.000000
 11
23.883493
 21
0.048034
 31
0.000000
  0
LINE
  8
1
 10
23.883493
 20
0.048034
 30
0.000000
 11
23.921282
 21
0.055209
 31
0.000000
  0
LINE
  8
1
 10
23.921282
 20
0.055209
 30
0.000000
 11
23.960762
 21
0.063064
 31
0.000000
  0
LINE
  8
1
 10
23.960762
 20
0.063064
 30
0.000000
 11
24.001923
 21
0.071627
 31
0.000000
  0
LINE
  8
1
 10
24.001923
 20
0.071627
 30
0.000000
 11
24.044756
 21
0.080928
 31
0.000000
  0
LINE
  8
1
 10
24.044756
 20
0.080928
 30
0.000000
 11
24.089251
 21
0.090997
 31
0.000000
  0
LINE
  8
1
 10
24.089251
 20
0.090997
 30
0.000000
 11
24.135399
 21
0.101865
 31
0.000000
  0
LINE
  8
1
 10
24.135399
 20
0.101865
 30
0.000000
 11
24.183187
 21
0.113560
 31
0.000000
  0
LINE
  8
1
 10
24.183187
 20
0.113560
 30
0.000000
 11
24.232605
 21
0.126112
 31
0.000000
  0
LINE
  8
1
 10
24.232605
 20
0.126112
 30
0.000000
 11
24.283642
 21
0.139550
 31
0.000000
  0
LINE
  8
1
 10
24.283642
 20
0.139550
 30
0.000000
 11
24.336287
 21
0.153904
 31
0.000000
  0
LINE
  8
1
 10
24.336287
 20
0.153904
 30
0.000000
 11
24.390524
 21
0.169202
 31
0.000000
  0
LINE
  8
1
 10
24.390524
 20
0.169202
 30
0.000000
 11
24.446344
 21
0.185474
 31
0.000000
  0
LINE
  8
1
 10
24.446344
 20
0.185474
 30
0.000000
 11
24.503735
 21
0.202747
 31
0.000000
  0
LINE
  8
1
 10
24.503735
 20
0.202747
 30
0.000000
 11
24.562679
 21
0.221052
 31
0.000000
  0
LINE
  8
1
 10
24.562679
 20
0.221052
 30
0.000000
 11
24.623167
 21
0.240415
 31
0.000000
  0
LINE
  8
1
 10
24.623167
 20
0.240415
 30
0.000000
 11
24.685181
 21
0.260866
 31
0.000000
  0
LINE
  8
1
 10
24.685181
 20
0.260866
 30
0.000000
 11
24.748709
 21
0.282432
 31
0.000000
  0
LINE
  8
1
 10
24.748709
 20
0.282432
 30
0.000000
 11
24.813736
 21
0.305142
 31
0.000000
  0
LINE
  8
1
 10
24.813736
 20
0.305142
 30
0.000000
 11
24.880245
 21
0.329023
 31
0.000000
  0
LINE
  8
1
 10
24.880245
 20
0.329023
 30
0.000000
 11
24.948223
 21
0.354102
 31
0.000000
  0
LINE
  8
1
 10
24.948223
 20
0.354102
 30
0.000000
 11
25.017651
 21
0.380408
 31
0.000000
  0
LINE
  8
1
 10
25.017651
 20
0.380408
 30
0.000000
 11
25.088514
 21
0.407966
 31
0.000000
  0
LINE
  8
1
 10
25.088514
 20
0.407966
 30
0.000000
 11
25.160797
 21
0.436806
 31
0.000000
  0
LINE
  8
1
 10
25.160797
 20
0.436806
 30
0.000000
 11
25.234482
 21
0.466952
 31
0.000000
  0
LINE
  8
1
 10
25.234482
 20
0.466952
 30
0.000000
 11
25.309549
 21
0.498432
 31
0.000000
  0
LINE
  8
1
 10
25.309549
 20
0.498432
 30
0.000000
 11
25.385983
 21
0.531272
 31
0.000000
  0
LINE
  8
1
 10
25.385983
 20
0.531272
 30
0.000000
 11
25.463764
 21
0.565498
 31
0.000000
  0
LINE
  8
1
 10
25.463764
 20
0.565498
 30
0.000000
 11
25.542875
 21
0.601137
 31
0.000000
  0
LINE
  8
1
 10
25.542875
 20
0.601137
 30
0.000000
 11
25.623299
 21
0.638213
 31
0.000000
  0
LINE
  8
1
 10
25.623299
 20
0.638213
 30
0.000000
 11
25.705011
 21
0.676753
 31
0.000000
  0
LINE
  8
1
 10
25.705011
 20
0.676753
 30
0.000000
 11
25.787998
 21
0.716782
 31
0.000000
  0
LINE
  8
1
 10
25.787998
 20
0.716782
 30
0.000000
 11
25.872234
 21
0.758325
 31
0.000000
  0
LINE
  8
1
 10
25.872234
 20
0.758325
 30
0.000000
 11
25.957705
 21
0.801407
 31
0.000000
  0
LINE
  8
1
 10
25.957705
 20
0.801407
 30
0.000000
 11
26.044386
 21
0.846052
 31
0.000000
  0
LINE
  8
1
 10
26.044386
 20
0.846052
 30
0.000000
 11
26.132257
 21
0.892284
 31
0.000000
  0
LINE
  8
1
 10
26.132257
 20
0.892284
 30
0.000000
 11
26.221296
 21
0.940129
 31
0.000000
  0
LINE
  8
1
 10
26.221296
 20
0.940129
 30
0.000000
 11
26.311485
 21
0.989609
 31
0.000000
  0
LINE
  8
1
 10
26.311485
 20
0.989609
 30
0.000000
 11
26.402798
 21
1.040749
 31
0.000000
  0
LINE
  8
1
 10
26.402798
 20
1.040749
 30
0.000000
 11
26.495216
 21
1.093571
 31
0.000000
  0
LINE
  8
1
 10
26.495216
 20
1.093571
 30
0.000000
 11
26.588715
 21
1.148099
 31
0.000000
  0
LINE
  8
1
 10
26.588715
 20
1.148099
 30
0.000000
 11
26.683270
 21
1.204355
 31
0.000000
  0
LINE
  8
1
 10
26.683270
 20
1.204355
 30
0.000000
 11
26.778860
 21
1.262363
 31
0.000000
  0
LINE
  8
1
 10
26.778860
 20
1.262363
 30
0.000000
 11
26.875463
 21
1.322144
 31
0.000000
  0
LINE
  8
1
 10
26.875463
 20
1.322144
 30
0.000000
 11
26.964787
 21
1.378505
 31
0.000000
  0
LINE
  8
1
 10
26.964787
 20
1.378505
 30
0.000000
 11
26.852991
 21
2.813689
 31
0.000000
  0
LINE
  8
1
 10
26.852991
 20
2.813689
 30
0.000000
 11
26.756018
 21
2.855538
 31
0.000000
  0
LINE
  8
1
 10
26.756018
 20
2.855538
 30
0.000000
 11
26.651321
 21
2.899639
 31
0.000000
  0
LINE
  8
1
 10
26.651321
 20
2.899639
 30
0.000000
 11
26.547901
 21
2.942144
 31
0.000000
  0
LINE
  8
1
 10
26.547901
 20
2.942144
 30
0.000000
 11
26.445776
 21
2.983080
 31
0.000000
  0
LINE
  8
1
 10
26.445776
 20
2.983080
 30
0.000000
 11
26.344961
 21
3.022472
 31
0.000000
  0
LINE
  8
1
 10
26.344961
 20
3.022472
 30
0.000000
 11
26.245478
 21
3.060346
 31
0.000000
  0
LINE
  8
1
 10
26.245478
 20
3.060346
 30
0.000000
 11
26.147348
 21
3.096729
 31
0.000000
  0
LINE
  8
1
 10
26.147348
 20
3.096729
 30
0.000000
 11
26.050585
 21
3.131646
 31
0.000000
  0
LINE
  8
1
 10
26.050585
 20
3.131646
 30
0.000000
 11
25.955212
 21
3.165126
 31
0.000000
  0
LINE
  8
1
 10
25.955212
 20
3.165126
 30
0.000000
 11
25.861240
 21
3.197193
 31
0.000000
  0
LINE
  8
1
 10
25.861240
 20
3.197193
 30
0.000000
 11
25.768692
 21
3.227877
 31
0.000000
  0
LINE
  8
1
 10
25.768692
 20
3.227877
 30
0.000000
 11
25.677582
 21
3.257204
 31
0.000000
  0
LINE
  8
1
 10
25.677582
 20
3.257204
 30
0.000000
 11
25.587927
 21
3.285201
 31
0.000000
  0
LINE
  8
1
 10
25.587927
 20
3.285201
 30
0.000000
 11
25.499743
 21
3.311897
 31
0.000000
  0
LINE
  8
1
 10
25.499743
 20
3.311897
 30
0.000000
 11
25.413048
 21
3.337319
 31
0.000000
  0
LINE
  8
1
 10
25.413048
 20
3.337319
 30
0.000000
 11
25.327854
 21
3.361494
 31
0.000000
  0
LINE
  8
1
 10
25.327854
 20
3.361494
 30
0.000000
 11
25.244179
 21
3.384452
 31
0.000000
  0
LINE
  8
1
 10
25.244179
 20
3.384452
 30
0.000000
 11
25.162035
 21
3.406221
 31
0.000000
  0
LINE
  8
1
 10
25.162035
 20
3.406221
 30
0.000000
 11
25.081438
 21
3.426829
 31
0.000000
  0
LINE
  8
1
 10
25.081438
 20
3.426829
 30
0.000000
 11
25.002401
 21
3.446305
 31
0.000000
  0
LINE
  8
1
 10
25.002401
 20
3.446305
 30
0.000000
 11
24.924936
 21
3.464677
 31
0.000000
  0
LINE
  8
1
 10
24.924936
 20
3.464677
 30
0.000000
 11
24.849060
 21
3.481975
 31
0.000000
  0
LINE
  8
1
 10
24.849060
 20
3.481975
 30
0.000000
 11
24.774784
 21
3.498228
 31
0.000000
  0
LINE
  8
1
 10
24.774784
 20
3.498228
 30
0.000000
 11
24.702120
 21
3.513465
 31
0.000000
  0
LINE
  8
1
 10
24.702120
 20
3.513465
 30
0.000000
 11
24.631079
 21
3.527716
 31
0.000000
  0
LINE
  8
1
 10
24.631079
 20
3.527716
 30
0.000000
 11
24.561674
 21
3.541009
 31
0.000000
  0
LINE
  8
1
 10
24.561674
 20
3.541009
 30
0.000000
 11
24.493914
 21
3.553375
 31
0.000000
  0
LINE
  8
1
 10
24.493914
 20
3.553375
 30
0.000000
 11
24.427813
 21
3.564844
 31
0.000000
  0
LINE
  8
1
 10
24.427813
 20
3.564844
 30
0.000000
 11
24.363380
 21
3.575445
 31
0.000000
  0
LINE
  8
1
 10
24.363380
 20
3.575445
 30
0.000000
 11
24.300625
 21
3.585208
 31
0.000000
  0
LINE
  8
1
 10
24.300625
 20
3.585208
 30
0.000000
 11
24.239555
 21
3.594164
 31
0.000000
  0
LINE
  8
1
 10
24.239555
 20
3.594164
 30
0.000000
 11
24.180183
 21
3.602342
 31
0.000000
  0
LINE
  8
1
 10
24.180183
 20
3.602342
 30
0.000000
 11
24.122517
 21
3.609774
 31
0.000000
  0
LINE
  8
1
 10
24.122517
 20
3.609774
 30
0.000000
 11
24.066565
 21
3.616488
 31
0.000000
  0
LINE
  8
1
 10
24.066565
 20
3.616488
 30
0.000000
 11
24.012331
 21
3.622517
 31
0.000000
  0
LINE
  8
1
 10
24.012331
 20
3.622517
 30
0.000000
 11
23.959829
 21
3.627890
 31
0.000000
  0
LINE
  8
1
 10
23.959829
 20
3.627890
 30
0.000000
 11
23.909065
 21
3.632638
 31
0.000000
  0
LINE
  8
1
 10
23.909065
 20
3.632638
 30
0.000000
 11
23.860041
 21
3.636792
 31
0.000000
  0
LINE
  8
1
 10
23.860041
 20
3.636792
 30
0.000000
 11
23.812767
 21
3.640382
 31
0.000000
  0
LINE
  8
1
 10
23.812767
 20
3.640382
 30
0.000000
 11
23.767250
 21
3.643440
 31
0.000000
  0
LINE
  8
1
 10
23.767250
 20
3.643440
 30
0.000000
 11
23.723494
 21
3.645996
 31
0.000000
  0
LINE
  8
1
 10
23.723494
 20
3.645996
 30
0.000000
 11
23.681503
 21
3.648082
 31
0.000000
  0
LINE
  8
1
 10
23.681503
 20
3.648082
 30
0.000000
 11
23.641283
 21
3.649728
 31
0.000000
  0
LINE
  8
1
 10
23.641283
 20
3.649728
 30
0.000000
 11
23.602839
 21
3.650966
 31
0.000000
  0
LINE
  8
1
 10
23.602839
 20
3.650966
 30
0.000000
 11
23.566172
 21
3.651826
 31
0.000000
  0
LINE
  8
1
 10
23.566172
 20
3.651826
 30
0.000000
 11
23.531290
 21
3.652339
 31
0.000000
  0
LINE
  8
1
 10
23.531290
 20
3.652339
 30
0.000000
 11
23.498196
 21
3.652538
 31
0.000000
  0
LINE
  8
1
 10
23.498196
 20
3.652538
 30
0.000000
 11
23.466885
 21
3.652453
 31
0.000000
  0
LINE
  8
1
 10
23.466885
 20
3.652453
 30
0.000000
 11
23.437368
 21
3.652115
 31
0.000000
  0
LINE
  8
1
 10
23.437368
 20
3.652115
 30
0.000000
 11
23.409643
 21
3.651556
 31
0.000000
  0
LINE
  8
1
 10
23.409643
 20
3.651556
 30
0.000000
 11
23.383715
 21
3.650807
 31
0.000000
  0
LINE
  8
1
 10
23.383715
 20
3.650807
 30
0.000000
 11
23.359579
 21
3.649899
 31
0.000000
  0
LINE
  8
1
 10
23.359579
 20
3.649899
 30
0.000000
 11
23.337240
 21
3.648863
 31
0.000000
  0
LINE
  8
1
 10
23.337240
 20
3.648863
 30
0.000000
 11
23.316698
 21
3.647731
 31
0.000000
  0
LINE
  8
1
 10
23.316698
 20
3.647731
 30
0.000000
 11
23.297951
 21
3.646533
 31
0.000000
  0
LINE
  8
1
 10
23.297951
 20
3.646533
 30
0.000000
 11
23.280998
 21
3.645302
 31
0.000000
  0
LINE
  8
1
 10
23.280998
 20
3.645302
 30
0.000000
 11
23.265844
 21
3.644068
 31
0.000000
  0
LINE
  8
1
 10
23.265844
 20
3.644068
 30
0.000000
 11
23.252480
 21
3.642863
 31
0.000000
  0
LINE
  8
1
 10
23.252480
 20
3.642863
 30
0.000000
 11
23.240908
 21
3.641718
 31
0.000000
  0
LINE
  8
1
 10
23.240908
 20
3.641718
 30
0.000000
 11
23.231125
 21
3.640664
 31
0.000000
  0
LINE
  8
1
 10
23.231125
 20
3.640664
 30
0.000000
 11
23.223129
 21
3.639732
 31
0.000000
  0
LINE
  8
1
 10
23.223129
 20
3.639732
 30
0.000000
 11
23.216915
 21
3.638953
 31
0.000000
  0
LINE
  8
1
 10
23.216915
 20
3.638953
 30
0.000000
 11
23.212482
 21
3.638358
 31
0.000000
  0
LINE
  8
1
 10
23.212482
 20
3.638358
 30
0.000000
 11
23.208941
 21
3.637845
 31
0.000000
  0
LINE
  8
1
 10
23.208941
 20
3.637845
 30
0.000000
 11
22.228596
 21
3.484182
 31
0.000000
  0
LINE
  8
1
 10
22.228596
 20
3.484182
 30
0.000000
 11
21.793121
 21
5.595522
 31
0.000000
  0
LINE
  8
1
 10
21.793121
 20
5.595522
 30
0.000000
 11
22.754261
 21
5.842301
 31
0.000000
  0
LINE
  8
1
 10
22.754261
 20
5.842301
 30
0.000000
 11
22.757717
 21
5.843231
 31
0.000000
  0
LINE
  8
1
 10
22.757717
 20
5.843231
 30
0.000000
 11
22.762022
 21
5.844439
 31
0.000000
  0
LINE
  8
1
 10
22.762022
 20
5.844439
 30
0.000000
 11
22.768038
 21
5.846182
 31
0.000000
  0
LINE
  8
1
 10
22.768038
 20
5.846182
 30
0.000000
 11
22.775749
 21
5.848490
 31
0.000000
  0
LINE
  8
1
 10
22.775749
 20
5.848490
 30
0.000000
 11
22.785151
 21
5.851392
 31
0.000000
  0
LINE
  8
1
 10
22.785151
 20
5.851392
 30
0.000000
 11
22.796232
 21
5.854919
 31
0.000000
  0
LINE
  8
1
 10
22.796232
 20
5.854919
 30
0.000000
 11
22.808983
 21
5.859101
 31
0.000000
  0
LINE
  8
1
 10
22.808983
 20
5.859101
 30
0.000000
 11
22.823389
 21
5.863965
 31
0.000000
  0
LINE
  8
1
 10
22.823389
 20
5.863965
 30
0.000000
 11
22.839443
 21
5.869541
 31
0.000000
  0
LINE
  8
1
 10
22.839443
 20
5.869541
 30
0.000000
 11
22.857136
 21
5.875859
 31
0.000000
  0
LINE
  8
1
 10
22.857136
 20
5.875859
 30
0.000000
 11
22.876450
 21
5.882948
 31
0.000000
  0
LINE
  8
1
 10
22.876450
 20
5.882948
 30
0.000000
 11
22.897375
 21
5.890836
 31
0.000000
  0
LINE
  8
1
 10
22.897375
 20
5.890836
 30
0.000000
 11
22.919901
 21
5.899551
 31
0.000000
  0
LINE
  8
1
 10
22.919901
 20
5.899551
 30
0.000000
 11
22.944010
 21
5.909122
 31
0.000000
  0
LINE
  8
1
 10
22.944010
 20
5.909122
 30
0.000000
 11
22.969694
 21
5.919579
 31
0.000000
  0
LINE
  8
1
 10
22.969694
 20
5.919579
 30
0.000000
 11
22.996935
 21
5.930948
 31
0.000000
  0
LINE
  8
1
 10
22.996935
 20
5.930948
 30
0.000000
 11
23.025723
 21
5.943258
 31
0.000000
  0
LINE
  8
1
 10
23.025723
 20
5.943258
 30
0.000000
 11
23.056038
 21
5.956536
 31
0.000000
  0
LINE
  8
1
 10
23.056038
 20
5.956536
 30
0.000000
 11
23.087870
 21
5.970810
 31
0.000000
  0
LINE
  8
1
 10
23.087870
 20
5.970810
 30
0.000000
 11
23.121204
 21
5.986107
 31
0.000000
  0
LINE
  8
1
 10
23.121204
 20
5.986107
 30
0.000000
 11
23.156021
 21
6.002456
 31
0.000000
  0
LINE
  8
1
 10
23.156021
 20
6.002456
 30
0.000000
 11
23.192307
 21
6.019881
 31
0.000000
  0
LINE
  8
1
 10
23.192307
 20
6.019881
 30
0.000000
 11
23.230045
 21
6.038412
 31
0.000000
  0
LINE
  8
1
 10
23.230045
 20
6.038412
 30
0.000000
 11
23.269220
 21
6.058073
 31
0.000000
  0
LINE
  8
1
 10
23.269220
 20
6.058073
 30
0.000000
 11
23.309813
 21
6.078891
 31
0.000000
  0
LINE
  8
1
 10
23.309813
 20
6.078891
 30
0.000000
 11
23.351809
 21
6.100894
 31
0.000000
  0
LINE
  8
1
 10
23.351809
 20
6.100894
 30
0.000000
 11
23.395187
 21
6.124106
 31
0.000000
  0
LINE
  8
1
 10
23.395187
 20
6.124106
 30
0.000000
 11
23.439930
 21
6.148553
 31
0.000000
  0
LINE
  8
1
 10
23.439930
 20
6.148553
 30
0.000000
 11
23.486021
 21
6.174262
 31
0.000000
  0
LINE
  8
1
 10
23.486021
 20
6.174262
 30
0.000000
 11
23.533443
 21
6.201257
 31
0.000000
  0
LINE
  8
1
 10
23.533443
 20
6.201257
 30
0.000000
 11
23.582172
 21
6.229563
 31
0.000000
  0
LINE
  8
1
 10
23.582172
 20
6.229563
 30
0.000000
 11
23.632193
 21
6.259205
 31
0.000000
  0
LINE
  8
1
 10
23.632193
 20
6.259205
 30
0.000000
 11
23.683483
 21
6.290208
 31
0.000000
  0
LINE
  8
1
 10
23.683483
 20
6.290208
 30
0.000000
 11
23.736025
 21
6.322597
 31
0.000000
  0
LINE
  8
1
 10
23.736025
 20
6.322597
 30
0.000000
 11
23.789797
 21
6.356394
 31
0.000000
  0
LINE
  8
1
 10
23.789797
 20
6.356394
 30
0.000000
 11
23.844776
 21
6.391625
 31
0.000000
  0
LINE
  8
1
 10
23.844776
 20
6.391625
 30
0.000000
 11
23.900944
 21
6.428312
 31
0.000000
  0
LINE
  8
1
 10
23.900944
 20
6.428312
 30
0.000000
 11
23.958281
 21
6.466480
 31
0.000000
  0
LINE
  8
1
 10
23.958281
 20
6.466480
 30
0.000000
 11
24.016762
 21
6.506151
 31
0.000000
  0
LINE
  8
1
 10
24.016762
 20
6.506151
 30
0.000000
 11
24.076366
 21
6.547348
 31
0.000000
  0
LINE
  8
1
 10
24.076366
 20
6.547348
 30
0.000000
 11
24.137072
 21
6.590093
 31
0.000000
  0
LINE
  8
1
 10
24.137072
 20
6.590093
 30
0.000000
 11
24.198856
 21
6.634409
 31
0.000000
  0
LINE
  8
1
 10
24.198856
 20
6.634409
 30
0.000000
 11
24.261696
 21
6.680318
 31
0.000000
  0
LINE
  8
1
 10
24.261696
 20
6.680318
 30
0.000000
 11
24.325567
 21
6.727842
 31
0.000000
  0
LINE
  8
1
 10
24.325567
 20
6.727842
 30
0.000000
 11
24.390448
 21
6.777001
 31
0.000000
  0
LINE
  8
1
 10
24.390448
 20
6.777001
 30
0.000000
 11
24.456314
 21
6.827817
 31
0.000000
  0
LINE
  8
1
 10
24.456314
 20
6.827817
 30
0.000000
 11
24.523140
 21
6.880312
 31
0.000000
  0
LINE
  8
1
 10
24.523140
 20
6.880312
 30
0.000000
 11
24.590902
 21
6.934505
 31
0.000000
  0
LINE
  8
1
 10
24.590902
 20
6.934505
 30
0.000000
 11
24.659578
 21
6.990417
 31
0.000000
  0
LINE
  8
1
 10
24.659578
 20
6.990417
 30
0.000000
 11
24.729139
 21
7.048068
 31
0.000000
  0
LINE
  8
1
 10
24.729139
 20
7.048068
 30
0.000000
 11
24.799564
 21
7.107477
 31
0.000000
  0
LINE
  8
1
 10
24.799564
 20
7.107477
 30
0.000000
 11
24.870823
 21
7.168664
 31
0.000000
  0
LINE
  8
1
 10
24.870823
 20
7.168664
 30
0.000000
 11
24.942894
 21
7.231647
 31
0.000000
  0
LINE
  8
1
 10
24.942894
 20
7.231647
 30
0.000000
 11
25.015749
 21
7.296446
 31
0.000000
  0
LINE
  8
1
 10
25.015749
 20
7.296446
 30
0.000000
 11
25.089363
 21
7.363080
 31
0.000000
  0
LINE
  8
1
 10
25.089363
 20
7.363080
 30
0.000000
 11
25.163706
 21
7.431564
 31
0.000000
  0
LINE
  8
1
 10
25.163706
 20
7.431564
 30
0.000000
 11
25.238756
 21
7.501919
 31
0.000000
  0
LINE
  8
1
 10
25.238756
 20
7.501919
 30
0.000000
 11
25.314482
 21
7.574160
 31
0.000000
  0
LINE
  8
1
 10
25.314482
 20
7.574160
 30
0.000000
 11
25.390860
 21
7.648306
 31
0.000000
  0
LINE
  8
1
 10
25.390860
 20
7.648306
 30
0.000000
 11
25.467861
 21
7.724373
 31
0.000000
  0
LINE
  8
1
 10
25.467861
 20
7.724373
 30
0.000000
 11
25.545454
 21
7.802377
 31
0.000000
  0
LINE
  8
1
 10
25.545454
 20
7.802377
 30
0.000000
 11
25.623615
 21
7.882335
 31
0.000000
  0
LINE
  8
1
 10
25.623615
 20
7.882335
 30
0.000000
 11
25.702318
 21
7.964262
 31
0.000000
  0
LINE
  8
1
 10
25.702318
 20
7.964262
 30
0.000000
 11
25.774818
 21
8.041066
 31
0.000000
  0
LINE
  8
1
 10
25.774818
 20
8.041066
 30
0.000000
 11
25.309618
 21
9.403359
 31
0.000000
  0
LINE
  8
1
 10
25.309618
 20
9.403359
 30
0.000000
 11
25.205284
 21
9.419777
 31
0.000000
  0
LINE
  8
1
 10
25.205284
 20
9.419777
 30
0.000000
 11
25.092911
 21
9.436456
 31
0.000000
  0
LINE
  8
1
 10
25.092911
 20
9.436456
 30
0.000000
 11
24.982170
 21
9.451906
 31
0.000000
  0
LINE
  8
1
 10
24.982170
 20
9.451906
 30
0.000000
 11
24.873072
 21
9.466158
 31
0.000000
  0
LINE
  8
1
 10
24.873072
 20
9.466158
 30
0.000000
 11
24.765629
 21
9.479241
 31
0.000000
  0
LINE
  8
1
 10
24.765629
 20
9.479241
 30
0.000000
 11
24.659851
 21
9.491184
 31
0.000000
  0
LINE
  8
1
 10
24.659851
 20
9.491184
 30
0.000000
 11
24.555756
 21
9.502020
 31
0.000000
  0
LINE
  8
1
 10
24.555756
 20
9.502020
 30
0.000000
 11
24.453350
 21
9.511777
 31
0.000000
  0
LINE
  8
1
 10
24.453350
 20
9.511777
 30
0.000000
 11
24.352646
 21
9.520486
 31
0.000000
  0
LINE
  8
1
 10
24.352646
 20
9.520486
 30
0.000000
 11
24.253653
 21
9.528176
 31
0.000000
  0
LINE
  8
1
 10
24.253653
 20
9.528176
 30
0.000000
 11
24.156380
 21
9.534881
 31
0.000000
  0
LINE
  8
1
 10
24.156380
 20
9.534881
 30
0.000000
 11
24.060839
 21
9.540627
 31
0.000000
  0
LINE
  8
1
 10
24.060839
 20
9.540627
 30
0.000000
 11
23.967039
 21
9.545449
 31
0.000000
  0
LINE
  8
1
 10
23.967039
 20
9.545449
 30
0.000000
 11
23.874987
 21
9.549376
 31
0.000000
  0
LINE
  8
1
 10
23.874987
 20
9.549376
 30
0.000000
 11
23.784693
 21
9.552439
 31
0.000000
  0
LINE
  8
1
 10
23.784693
 20
9.552439
 30
0.000000
 11
23.696163
 21
9.554667
 31
0.000000
  0
LINE
  8
1
 10
23.696163
 20
9.554667
 30
0.000000
 11
23.609407
 21
9.556095
 31
0.000000
  0
LINE
  8
1
 10
23.609407
 20
9.556095
 30
0.000000
 11
23.524431
 21
9.556752
 31
0.000000
  0
LINE
  8
1
 10
23.524431
 20
9.556752
 30
0.000000
 11
23.441240
 21
9.556668
 31
0.000000
  0
LINE
  8
1
 10
23.441240
 20
9.556668
 30
0.000000
 11
23.359844
 21
9.555877
 31
0.000000
  0
LINE
  8
1
 10
23.359844
 20
9.555877
 30
0.000000
 11
23.280245
 21
9.554408
 31
0.000000
  0
LINE
  8
1
 10
23.280245
 20
9.554408
 30
0.000000
 11
23.202450
 21
9.552293
 31
0.000000
  0
LINE
  8
1
 10
23.202450
 20
9.552293
 30
0.000000
 11
23.126465
 21
9.549563
 31
0.000000
  0
LINE
  8
1
 10
23.126465
 20
9.549563
 30
0.000000
 11
23.052296
 21
9.546251
 31
0.000000
  0
LINE
  8
1
 10
23.052296
 20
9.546251
 30
0.000000
 11
22.979940
 21
9.542386
 31
0.000000
  0
LINE
  8
1
 10
22.979940
 20
9.542386
 30
0.000000
 11
22.909410
 21
9.538002
 31
0.000000
  0
LINE
  8
1
 10
22.909410
 20
9.538002
 30
0.000000
 11
22.840704
 21
9.533129
 31
0.000000
  0
LINE
  8
1
 10
22.840704
 20
9.533129
 30
0.000000
 11
22.773829
 21
9.527798
 31
0.000000
  0
LINE
  8
1
 10
22.773829
 20
9.527798
 30
0.000000
 11
22.708784
 21
9.522042
 31
0.000000
  0
LINE
  8
1
 10
22.708784
 20
9.522042
 30
0.000000
 11
22.645571
 21
9.515892
 31
0.000000
  0
LINE
  8
1
 10
22.645571
 20
9.515892
 30
0.000000
 11
22.584194
 21
9.509379
 31
0.000000
  0
LINE
  8
1
 10
22.584194
 20
9.509379
 30
0.000000
 11
22.524652
 21
9.502535
 31
0.000000
  0
LINE
  8
1
 10
22.524652
 20
9.502535
 30
0.000000
 11
22.466949
 21
9.495392
 31
0.000000
  0
LINE
  8
1
 10
22.466949
 20
9.495392
 30
0.000000
 11
22.411085
 21
9.487981
 31
0.000000
  0
LINE
  8
1
 10
22.411085
 20
9.487981
 30
0.000000
 11
22.357058
 21
9.480333
 31
0.000000
  0
LINE
  8
1
 10
22.357058
 20
9.480333
 30
0.000000
 11
22.304869
 21
9.472481
 31
0.000000
  0
LINE
  8
1
 10
22.304869
 20
9.472481
 30
0.000000
 11
22.254517
 21
9.464455
 31
0.000000
  0
LINE
  8
1
 10
22.254517
 20
9.464455
 30
0.000000
 11
22.206001
 21
9.456286
 31
0.000000
  0
LINE
  8
1
 10
22.206001
 20
9.456286
 30
0.000000
 11
22.159319
 21
9.448007
 31
0.000000
  0
LINE
  8
1
 10
22.159319
 20
9.448007
 30
0.000000
 11
22.114471
 21
9.439650
 31
0.000000
  0
LINE
  8
1
 10
22.114471
 20
9.439650
 30
0.000000
 11
22.071453
 21
9.431243
 31
0.000000
  0
LINE
  8
1
 10
22.071453
 20
9.431243
 30
0.000000
 11
22.030264
 21
9.422821
 31
0.000000
  0
LINE
  8
1
 10
22.030264
 20
9.422821
 30
0.000000
 11
21.990898
 21
9.414412
 31
0.000000
  0
LINE
  8
1
 10
21.990898
 20
9.414412
 30
0.000000
 11
21.953354
 21
9.406051
 31
0.000000
  0
LINE
  8
1
 10
21.953354
 20
9.406051
 30
0.000000
 11
21.917625
 21
9.397765
 31
0.000000
  0
LINE
  8
1
 10
21.917625
 20
9.397765
 30
0.000000
 11
21.883711
 21
9.389588
 31
0.000000
  0
LINE
  8
1
 10
21.883711
 20
9.389588
 30
0.000000
 11
21.851606
 21
9.381551
 31
0.000000
  0
LINE
  8
1
 10
21.851606
 20
9.381551
 30
0.000000
 11
21.821302
 21
9.373682
 31
0.000000
  0
LINE
  8
1
 10
21.821302
 20
9.373682
 30
0.000000
 11
21.792797
 21
9.366014
 31
0.000000
  0
LINE
  8
1
 10
21.792797
 20
9.366014
 30
0.000000
 11
21.766083
 21
9.358577
 31
0.000000
  0
LINE
  8
1
 10
21.766083
 20
9.358577
 30
0.000000
 11
21.741154
 21
9.351403
 31
0.000000
  0
LINE
  8
1
 10
21.741154
 20
9.351403
 30
0.000000
 11
21.718002
 21
9.344522
 31
0.000000
  0
LINE
  8
1
 10
21.718002
 20
9.344522
 30
0.000000
 11
21.696623
 21
9.337962
 31
0.000000
  0
LINE
  8
1
 10
21.696623
 20
9.337962
 30
0.000000
 11
21.677008
 21
9.331758
 31
0.000000
  0
LINE
  8
1
 10
21.677008
 20
9.331758
 30
0.000000
 11
21.659147
 21
9.325935
 31
0.000000
  0
LINE
  8
1
 10
21.659147
 20
9.325935
 30
0.000000
 11
21.643034
 21
9.320527
 31
0.000000
  0
LINE
  8
1
 10
21.643034
 20
9.320527
 30
0.000000
 11
21.628662
 21
9.315563
 31
0.000000
  0
LINE
  8
1
 10
21.628662
 20
9.315563
 30
0.000000
 11
21.616016
 21
9.311072
 31
0.000000
  0
LINE
  8
1
 10
21.616016
 20
9.311072
 30
0.000000
 11
21.605093
 21
9.307085
 31
0.000000
  0
LINE
  8
1
 10
21.605093
 20
9.307085
 30
0.000000
 11
21.595881
 21
9.303631
 31
0.000000
  0
LINE
  8
1
 10
21.595881
 20
9.303631
 30
0.000000
 11
21.588367
 21
9.300740
 31
0.000000
  0
LINE
  8
1
 10
21.588367
 20
9.300740
 30
0.000000
 11
21.582542
 21
9.298440
 31
0.000000
  0
LINE
  8
1
 10
21.582542
 20
9.298440
 30
0.000000
 11
21.578398
 21
9.296762
 31
0.000000
  0
LINE
  8
1
 10
21.578398
 20
9.296762
 30
0.000000
 11
21.575094
 21
9.295384
 31
0.000000
  0
LINE
  8
1
 10
21.575094
 20
9.295384
 30
0.000000
 11
20.663763
 21
8.902747
 31
0.000000
  0
LINE
  8
1
 10
20.663763
 20
8.902747
 30
0.000000
 11
19.716902
 21
10.839458
 31
0.000000
  0
LINE
  8
1
 10
19.716902
 20
10.839458
 30
0.000000
 11
20.586473
 21
11.317510
 31
0.000000
  0
LINE
  8
1
 10
20.586473
 20
11.317510
 30
0.000000
 11
20.589588
 21
11.319269
 31
0.000000
  0
LINE
  8
1
 10
20.589588
 20
11.319269
 30
0.000000
 11
20.593460
 21
11.321510
 31
0.000000
  0
LINE
  8
1
 10
20.593460
 20
11.321510
 30
0.000000
 11
20.598852
 21
11.324695
 31
0.000000
  0
LINE
  8
1
 10
20.598852
 20
11.324695
 30
0.000000
 11
20.605747
 21
11.328848
 31
0.000000
  0
LINE
  8
1
 10
20.605747
 20
11.328848
 30
0.000000
 11
20.614132
 21
11.333998
 31
0.000000
  0
LINE
  8
1
 10
20.614132
 20
11.333998
 30
0.000000
 11
20.623989
 21
11.340169
 31
0.000000
  0
LINE
  8
1
 10
20.623989
 20
11.340169
 30
0.000000
 11
20.635298
 21
11.347390
 31
0.000000
  0
LINE
  8
1
 10
20.635298
 20
11.347390
 30
0.000000
 11
20.648043
 21
11.355683
 31
0.000000
  0
LINE
  8
1
 10
20.648043
 20
11.355683
 30
0.000000
 11
20.662207
 21
11.365078
 31
0.000000
  0
LINE
  8
1
 10
20.662207
 20
11.365078
 30
0.000000
 11
20.677771
 21
11.375597
 31
0.000000
  0
LINE
  8
1
 10
20.677771
 20
11.375597
 30
0.000000
 11
20.694715
 21
11.387266
 31
0.000000
  0
LINE
  8
1
 10
20.694715
 20
11.387266
 30
0.000000
 11
20.713022
 21
11.400110
 31
0.000000
  0
LINE
  8
1
 10
20.713022
 20
11.400110
 30
0.000000
 11
20.732672
 21
11.414154
 31
0.000000
  0
LINE
  8
1
 10
20.732672
 20
11.414154
 30
0.000000
 11
20.753643
 21
11.429420
 31
0.000000
  0
LINE
  8
1
 10
20.753643
 20
11.429420
 30
0.000000
 11
20.775919
 21
11.445935
 31
0.000000
  0
LINE
  8
1
 10
20.775919
 20
11.445935
 30
0.000000
 11
20.799479
 21
11.463722
 31
0.000000
  0
LINE
  8
1
 10
20.799479
 20
11.463722
 30
0.000000
 11
20.824299
 21
11.482804
 31
0.000000
  0
LINE
  8
1
 10
20.824299
 20
11.482804
 30
0.000000
 11
20.850361
 21
11.503204
 31
0.000000
  0
LINE
  8
1
 10
20.850361
 20
11.503204
 30
0.000000
 11
20.877644
 21
11.524946
 31
0.000000
  0
LINE
  8
1
 10
20.877644
 20
11.524946
 30
0.000000
 11
20.906126
 21
11.548053
 31
0.000000
  0
LINE
  8
1
 10
20.906126
 20
11.548053
 30
0.000000
 11
20.935783
 21
11.572546
 31
0.000000
  0
LINE
  8
1
 10
20.935783
 20
11.572546
 30
0.000000
 11
20.966595
 21
11.598449
 31
0.000000
  0
LINE
  8
1
 10
20.966595
 20
11.598449
 30
0.000000
 11
20.998539
 21
11.625781
 31
0.000000
  0
LINE
  8
1
 10
20.998539
 20
11.625781
 30
0.000000
 11
21.031593
 21
11.654567
 31
0.000000
  0
LINE
  8
1
 10
21.031593
 20
11.654567
 30
0.000000
 11
21.065733
 21
11.684827
 31
0.000000
  0
LINE
  8
1
 10
21.065733
 20
11.684827
 30
0.000000
 11
21.100939
 21
11.716582
 31
0.000000
  0
LINE
  8
1
 10
21.100939
 20
11.716582
 30
0.000000
 11
21.137182
 21
11.749853
 31
0.000000
  0
LINE
  8
1
 10
21.137182
 20
11.749853
 30
0.000000
 11
21.174440
 21
11.784659
 31
0.000000
  0
LINE
  8
1
 10
21.174440
 20
11.784659
 30
0.000000
 11
21.212690
 21
11.821023
 31
0.000000
  0
LINE
  8
1
 10
21.212690
 20
11.821023
 30
0.000000
 11
21.251907
 21
11.858963
 31
0.000000
  0
LINE
  8
1
 10
21.251907
 20
11.858963
 30
0.000000
 11
21.292067
 21
11.898498
 31
0.000000
  0
LINE
  8
1
 10
21.292067
 20
11.898498
 30
0.000000
 11
21.333143
 21
11.939649
 31
0.000000
  0
LINE
  8
1
 10
21.333143
 20
11.939649
 30
0.000000
 11
21.375113
 21
11.982433
 31
0.000000
  0
LINE
  8
1
 10
21.375113
 20
11.982433
 30
0.000000
 11
21.417948
 21
12.026870
 31
0.000000
  0
LINE
  8
1
 10
21.417948
 20
12.026870
 30
0.000000
 11
21.461626
 21
12.072979
 31
0.000000
  0
LINE
  8
1
 10
21.461626
 20
12.072979
 30
0.000000
 11
21.506117
 21
12.120775
 31
0.000000
  0
LINE
  8
1
 10
21.506117
 20
12.120775
 30
0.000000
 11
21.551397
 21
12.170279
 31
0.000000
  0
LINE
  8
1
 10
21.551397
 20
12.170279
 30
0.000000
 11
21.597441
 21
12.221506
 31
0.000000
  0
LINE
  8
1
 10
21.597441
 20
12.221506
 30
0.000000
 11
21.644218
 21
12.274474
 31
0.000000
  0
LINE
  8
1
 10
21.644218
 20
12.274474
 30
0.000000
 11
21.691706
 21
12.329200
 31
0.000000
  0
LINE
  8
1
 10
21.691706
 20
12.329200
 30
0.000000
 11
21.739872
 21
12.385699
 31
0.000000
  0
LINE
  8
1
 10
21.739872
 20
12.385699
 30
0.000000
 11
21.788694
 21
12.443988
 31
0.000000
  0
LINE
  8
1
 10
21.788694
 20
12.443988
 30
0.000000
 11
21.838142
 21
12.504082
 31
0.000000
  0
LINE
  8
1
 10
21.838142
 20
12.504082
 30
0.000000
 11
21.888189
 21
12.565997
 31
0.000000
  0
LINE
  8
1
 10
21.888189
 20
12.565997
 30
0.000000
 11
21.938807
 21
12.629747
 31
0.000000
  0
LINE
  8
1
 10
21.938807
 20
12.629747
 30
0.000000
 11
21.989965
 21
12.695348
 31
0.000000
  0
LINE
  8
1
 10
21.989965
 20
12.695348
 30
0.000000
 11
22.041637
 21
12.762812
 31
0.000000
  0
LINE
  8
1
 10
22.041637
 20
12.762812
 30
0.000000
 11
22.093794
 21
12.832154
 31
0.000000
  0
LINE
  8
1
 10
22.093794
 20
12.832154
 30
0.000000
 11
22.146406
 21
12.903389
 31
0.000000
  0
LINE
  8
1
 10
22.146406
 20
12.903389
 30
0.000000
 11
22.199446
 21
12.976527
 31
0.000000
  0
LINE
  8
1
 10
22.199446
 20
12.976527
 30
0.000000
 11
22.252884
 21
13.051584
 31
0.000000
  0
LINE
  8
1
 10
22.252884
 20
13.051584
 30
0.000000
 11
22.306686
 21
13.128570
 31
0.000000
  0
LINE
  8
1
 10
22.306686
 20
13.128570
 30
0.000000
 11
22.360830
 21
13.207498
 31
0.000000
  0
LINE
  8
1
 10
22.360830
 20
13.207498
 30
0.000000
 11
22.415281
 21
13.288380
 31
0.000000
  0
LINE
  8
1
 10
22.415281
 20
13.288380
 30
0.000000
 11
22.470011
 21
13.371226
 31
0.000000
  0
LINE
  8
1
 10
22.470011
 20
13.371226
 30
0.000000
 11
22.524988
 21
13.456047
 31
0.000000
  0
LINE
  8
1
 10
22.524988
 20
13.456047
 30
0.000000
 11
22.580183
 21
13.542856
 31
0.000000
  0
LINE
  8
1
 10
22.580183
 20
13.542856
 30
0.000000
 11
22.635565
 21
13.631660
 31
0.000000
  0
LINE
  8
1
 10
22.635565
 20
13.631660
 30
0.000000
 11
22.691105
 21
13.722471
 31
0.000000
  0
LINE
  8
1
 10
22.691105
 20
13.722471
 30
0.000000
 11
22.746769
 21
13.815298
 31
0.000000
  0
LINE
  8
1
 10
22.746769
 20
13.815298
 30
0.000000
 11
22.802525
 21
13.910148
 31
0.000000
  0
LINE
  8
1
 10
22.802525
 20
13.910148
 30
0.000000
 11
22.858347
 21
14.007031
 31
0.000000
  0
LINE
  8
1
 10
22.858347
 20
14.007031
 30
0.000000
 11
22.914202
 21
14.105957
 31
0.000000
  0
LINE
  8
1
 10
22.914202
 20
14.105957
 30
0.000000
 11
22.965324
 21
14.198378
 31
0.000000
  0
LINE
  8
1
 10
22.965324
 20
14.198378
 30
0.000000
 11
22.175951
 21
15.402182
 31
0.000000
  0
LINE
  8
1
 10
22.175951
 20
15.402182
 30
0.000000
 11
22.070812
 21
15.392137
 31
0.000000
  0
LINE
  8
1
 10
22.070812
 20
15.392137
 30
0.000000
 11
21.957821
 21
15.380345
 31
0.000000
  0
LINE
  8
1
 10
21.957821
 20
15.380345
 30
0.000000
 11
21.846716
 21
15.367770
 31
0.000000
  0
LINE
  8
1
 10
21.846716
 20
15.367770
 30
0.000000
 11
21.737501
 21
15.354443
 31
0.000000
  0
LINE
  8
1
 10
21.737501
 20
15.354443
 30
0.000000
 11
21.630180
 21
15.340394
 31
0.000000
  0
LINE
  8
1
 10
21.630180
 20
15.340394
 30
0.000000
 11
21.524755
 21
15.325657
 31
0.000000
  0
LINE
  8
1
 10
21.524755
 20
15.325657
 30
0.000000
 11
21.421236
 21
15.310265
 31
0.000000
  0
LINE
  8
1
 10
21.421236
 20
15.310265
 30
0.000000
 11
21.319620
 21
15.294247
 31
0.000000
  0
LINE
  8
1
 10
21.319620
 20
15.294247
 30
0.000000
 11
21.219915
 21
15.277638
 31
0.000000
  0
LINE
  8
1
 10
21.219915
 20
15.277638
 30
0.000000
 11
21.122120
 21
15.260469
 31
0.000000
  0
LINE
  8
1
 10
21.122120
 20
15.260469
 30
0.000000
 11
21.026236
 21
15.242772
 31
0.000000
  0
LINE
  8
1
 10
21.026236
 20
15.242772
 30
0.000000
 11
20.932266
 21
15.224578
 31
0.000000
  0
LINE
  8
1
 10
20.932266
 20
15.224578
 30
0.000000
 11
20.840216
 21
15.205922
 31
0.000000
  0
LINE
  8
1
 10
20.840216
 20
15.205922
 30
0.000000
 11
20.750078
 21
15.186832
 31
0.000000
  0
LINE
  8
1
 10
20.750078
 20
15.186832
 30
0.000000
 11
20.661860
 21
15.167344
 31
0.000000
  0
LINE
  8
1
 10
20.661860
 20
15.167344
 30
0.000000
 11
20.575556
 21
15.147486
 31
0.000000
  0
LINE
  8
1
 10
20.575556
 20
15.147486
 30
0.000000
 11
20.491171
 21
15.127294
 31
0.000000
  0
LINE
  8
1
 10
20.491171
 20
15.127294
 30
0.000000
 11
20.408701
 21
15.106796
 31
0.000000
  0
LINE
  8
1
 10
20.408701
 20
15.106796
 30
0.000000
 11
20.328146
 21
15.086028
 31
0.000000
  0
LINE
  8
1
 10
20.328146
 20
15.086028
 30
0.000000
 11
20.249502
 21
15.065019
 31
0.000000
  0
LINE
  8
1
 10
20.249502
 20
15.065019
 30
0.000000
 11
20.172770
 21
15.043799
 31
0.000000
  0
LINE
  8
1
 10
20.172770
 20
15.043799
 30
0.000000
 11
20.097944
 21
15.022404
 31
0.000000
  0
LINE
  8
1
 10
20.097944
 20
15.022404
 30
0.000000
 11
20.025026
 21
15.000864
 31
0.000000
  0
LINE
  8
1
 10
20.025026
 20
15.000864
 30
0.000000
 11
19.954010
 21
14.979210
 31
0.000000
  0
LINE
  8
1
 10
19.954010
 20
14.979210
 30
0.000000
 11
19.884890
 21
14.957474
 31
0.000000
  0
LINE
  8
1
 10
19.884890
 20
14.957474
 30
0.000000
 11
19.817665
 21
14.935686
 31
0.000000
  0
LINE
  8
1
 10
19.817665
 20
14.935686
 30
0.000000
 11
19.752331
 21
14.913879
 31
0.000000
  0
LINE
  8
1
 10
19.752331
 20
14.913879
 30
0.000000
 11
19.688881
 21
14.892085
 31
0.000000
  0
LINE
  8
1
 10
19.688881
 20
14.892085
 30
0.000000
 11
19.627310
 21
14.870335
 31
0.000000
  0
LINE
  8
1
 10
19.627310
 20
14.870335
 30
0.000000
 11
19.567614
 21
14.848657
 31
0.000000
  0
LINE
  8
1
 10
19.567614
 20
14.848657
 30
0.000000
 11
19.509785
 21
14.827085
 31
0.000000
  0
LINE
  8
1
 10
19.509785
 20
14.827085
 30
0.000000
 11
19.453815
 21
14.805649
 31
0.000000
  0
LINE
  8
1
 10
19.453815
 20
14.805649
 30
0.000000
 11
19.399702
 21
14.784379
 31
0.000000
  0
LINE
  8
1
 10
19.399702
 20
14.784379
 30
0.000000
 11
19.347435
 21
14.763309
 31
0.000000
  0
LINE
  8
1
 10
19.347435
 20
14.763309
 30
0.000000
 11
19.297007
 21
14.742465
 31
0.000000
  0
LINE
  8
1
 10
19.297007
 20
14.742465
 30
0.000000
 11
19.248411
 21
14.721880
 31
0.000000
  0
LINE
  8
1
 10
19.248411
 20
14.721880
 30
0.000000
 11
19.201637
 21
14.701585
 31
0.000000
  0
LINE
  8
1
 10
19.201637
 20
14.701585
 30
0.000000
 11
19.156677
 21
14.681607
 31
0.000000
  0
LINE
  8
1
 10
19.156677
 20
14.681607
 30
0.000000
 11
19.113520
 21
14.661979
 31
0.000000
  0
LINE
  8
1
 10
19.113520
 20
14.661979
 30
0.000000
 11
19.072161
 21
14.642731
 31
0.000000
  0
LINE
  8
1
 10
19.072161
 20
14.642731
 30
0.000000
 11
19.032583
 21
14.623891
 31
0.000000
  0
LINE
  8
1
 10
19.032583
 20
14.623891
 30
0.000000
 11
18.994783
 21
14.605490
 31
0.000000
  0
LINE
  8
1
 10
18.994783
 20
14.605490
 30
0.000000
 11
18.958744
 21
14.587556
 31
0.000000
  0
LINE
  8
1
 10
18.958744
 20
14.587556
 30
0.000000
 11
18.924459
 21
14.570120
 31
0.000000
  0
LINE
  8
1
 10
18.924459
 20
14.570120
 30
0.000000
 11
18.891914
 21
14.553209
 31
0.000000
  0
LINE
  8
1
 10
18.891914
 20
14.553209
 30
0.000000
 11
18.861099
 21
14.536855
 31
0.000000
  0
LINE
  8
1
 10
18.861099
 20
14.536855
 30
0.000000
 11
18.832003
 21
14.521085
 31
0.000000
  0
LINE
  8
1
 10
18.832003
 20
14.521085
 30
0.000000
 11
18.804607
 21
14.505927
 31
0.000000
  0
LINE
  8
1
 10
18.804607
 20
14.505927
 30
0.000000
 11
18.778904
 21
14.491411
 31
0.000000
  0
LINE
  8
1
 10
18.778904
 20
14.491411
 30
0.000000
 11
18.754877
 21
14.477565
 31
0.000000
  0
LINE
  8
1
 10
18.754877
 20
14.477565
 30
0.000000
 11
18.732517
 21
14.464417
 31
0.000000
  0
LINE
  8
1
 10
18.732517
 20
14.464417
 30
0.000000
 11
18.711805
 21
14.451993
 31
0.000000
  0
LINE
  8
1
 10
18.711805
 20
14.451993
 30
0.000000
 11
18.692728
 21
14.440324
 31
0.000000
  0
LINE
  8
1
 10
18.692728
 20
14.440324
 30
0.000000
 11
18.675272
 21
14.429436
 31
0.000000
  0
LINE
  8
1
 10
18.675272
 20
14.429436
 30
0.000000
 11
18.659420
 21
14.419354
 31
0.000000
  0
LINE
  8
1
 10
18.659420
 20
14.419354
 30
0.000000
 11
18.645159
 21
14.410110
 31
0.000000
  0
LINE
  8
1
 10
18.645159
 20
14.410110
 30
0.000000
 11
18.632473
 21
14.401727
 31
0.000000
  0
LINE
  8
1
 10
18.632473
 20
14.401727
 30
0.000000
 11
18.621342
 21
14.394233
 31
0.000000
  0
LINE
  8
1
 10
18.621342
 20
14.394233
 30
0.000000
 11
18.611752
 21
14.387654
 31
0.000000
  0
LINE
  8
1
 10
18.611752
 20
14.387654
 30
0.000000
 11
18.603687
 21
14.382017
 31
0.000000
  0
LINE
  8
1
 10
18.603687
 20
14.382017
 30
0.000000
 11
18.597130
 21
14.377349
 31
0.000000
  0
LINE
  8
1
 10
18.597130
 20
14.377349
 30
0.000000
 11
18.592060
 21
14.373672
 31
0.000000
  0
LINE
  8
1
 10
18.592060
 20
14.373672
 30
0.000000
 11
18.588463
 21
14.371016
 31
0.000000
  0
LINE
  8
1
 10
18.588463
 20
14.371016
 30
0.000000
 11
18.585606
 21
14.368860
 31
0.000000
  0
LINE
  8
1
 10
18.585606
 20
14.368860
 30
0.000000
 11
17.800550
 21
13.761920
 31
0.000000
  0
LINE
  8
1
 10
17.800550
 20
13.761920
 30
0.000000
 11
16.401794
 21
15.402310
 31
0.000000
  0
LINE
  8
1
 10
16.401794
 20
15.402310
 30
0.000000
 11
17.125160
 21
16.081596
 31
0.000000
  0
LINE
  8
1
 10
17.125160
 20
16.081596
 30
0.000000
 11
17.127741
 21
16.084076
 31
0.000000
  0
LINE
  8
1
 10
17.127741
 20
16.084076
 30
0.000000
 11
17.130932
 21
16.087210
 31
0.000000
  0
LINE
  8
1
 10
17.130932
 20
16.087210
 30
0.000000
 11
17.135363
 21
16.091635
 31
0.000000
  0
LINE
  8
1
 10
17.135363
 20
16.091635
 30
0.000000
 11
17.141010
 21
16.097372
 31
0.000000
  0
LINE
  8
1
 10
17.141010
 20
16.097372
 30
0.000000
 11
17.147850
 21
16.104445
 31
0.000000
  0
LINE
  8
1
 10
17.147850
 20
16.104445
 30
0.000000
 11
17.155861
 21
16.112875
 31
0.000000
  0
LINE
  8
1
 10
17.155861
 20
16.112875
 30
0.000000
 11
17.165020
 21
16.122681
 31
0.000000
  0
LINE
  8
1
 10
17.165020
 20
16.122681
 30
0.000000
 11
17.175303
 21
16.133884
 31
0.000000
  0
LINE
  8
1
 10
17.175303
 20
16.133884
 30
0.000000
 11
17.186684
 21
16.146505
 31
0.000000
  0
LINE
  8
1
 10
17.186684
 20
16.146505
 30
0.000000
 11
17.199144
 21
16.160564
 31
0.000000
  0
LINE
  8
1
 10
17.199144
 20
16.160564
 30
0.000000
 11
17.212654
 21
16.176081
 31
0.000000
  0
LINE
  8
1
 10
17.212654
 20
16.176081
 30
0.000000
 11
17.227190
 21
16.193073
 31
0.000000
  0
LINE
  8
1
 10
17.227190
 20
16.193073
 30
0.000000
 11
17.242731
 21
16.211563
 31
0.000000
  0
LINE
  8
1
 10
17.242731
 20
16.211563
 30
0.000000
 11
17.259247
 21
16.231565
 31
0.000000
  0
LINE
  8
1
 10
17.259247
 20
16.231565
 30
0.000000
 11
17.276716
 21
16.253101
 31
0.000000
  0
LINE
  8
1
 10
17.276716
 20
16.253101
 30
0.000000
 11
17.295111
 21
16.276188
 31
0.000000
  0
LINE
  8
1
 10
17.295111
 20
16.276188
 30
0.000000
 11
17.314407
 21
16.300844
 31
0.000000
  0
LINE
  8
1
 10
17.314407
 20
16.300844
 30
0.000000
 11
17.334578
 21
16.327084
 31
0.000000
  0
LINE
  8
1
 10
17.334578
 20
16.327084
 30
0.000000
 11
17.355595
 21
16.354927
 31
0.000000
  0
LINE
  8
1
 10
17.355595
 20
16.354927
 30
0.000000
 11
17.377436
 21
16.384392
 31
0.000000
  0
LINE
  8
1
 10
17.377436
 20
16.384392
 30
0.000000
 11
17.400070
 21
16.415491
 31
0.000000
  0
LINE
  8
1
 10
17.400070
 20
16.415491
 30
0.000000
 11
17.423473
 21
16.448242
 31
0.000000
  0
LINE
  8
1
 10
17.423473
 20
16.448242
 30
0.000000
 11
17.447617
 21
16.482660
 31
0.000000
  0
LINE
  8
1
 10
17.447617
 20
16.482660
 30
0.000000
 11
17.472473
 21
16.518763
 31
0.000000
  0
LINE
  8
1
 10
17.472473
 20
16.518763
 30
0.000000
 11
17.498016
 21
16.556562
 31
0.000000
  0
LINE
  8
1
 10
17.498016
 20
16.556562
 30
0.000000
 11
17.524218
 21
16.596075
 31
0.000000
  0
LINE
  8
1
 10
17.524218
 20
16.596075
 30
0.000000
 11
17.551048
 21
16.637314
 31
0.000000
  0
LINE
  8
1
 10
17.551048
 20
16.637314
 30
0.000000
 11
17.578480
 21
16.680292
 31
0.000000
  0
LINE
  8
1
 10
17.578480
 20
16.680292
 30
0.000000
 11
17.606483
 21
16.725025
 31
0.000000
  0
LINE
  8
1
 10
17.606483
 20
16.725025
 30
0.000000
 11
17.635035
 21
16.771526
 31
0.000000
  0
LINE
  8
1
 10
17.635035
 20
16.771526
 30
0.000000
 11
17.664099
 21
16.819807
 31
0.000000
  0
LINE
  8
1
 10
17.664099
 20
16.819807
 30
0.000000
 11
17.693653
 21
16.869879
 31
0.000000
  0
LINE
  8
1
 10
17.693653
 20
16.869879
 30
0.000000
 11
17.723663
 21
16.921757
 31
0.000000
  0
LINE
  8
1
 10
17.723663
 20
16.921757
 30
0.000000
 11
17.754103
 21
16.975451
 31
0.000000
  0
LINE
  8
1
 10
17.754103
 20
16.975451
 30
0.000000
 11
17.784941
 21
17.030973
 31
0.000000
  0
LINE
  8
1
 10
17.784941
 20
17.030973
 30
0.000000
 11
17.816147
 21
17.088333
 31
0.000000
  0
LINE
  8
1
 10
17.816147
 20
17.088333
 30
0.000000
 11
17.847694
 21
17.147541
 31
0.000000
  0
LINE
  8
1
 10
17.847694
 20
17.147541
 30
0.000000
 11
17.879551
 21
17.208611
 31
0.000000
  0
LINE
  8
1
 10
17.879551
 20
17.208611
 30
0.000000
 11
17.911686
 21
17.271547
 31
0.000000
  0
LINE
  8
1
 10
17.911686
 20
17.271547
 30
0.000000
 11
17.944073
 21
17.336363
 31
0.000000
  0
LINE
  8
1
 10
17.944073
 20
17.336363
 30
0.000000
 11
17.976675
 21
17.403067
 31
0.000000
  0
LINE
  8
1
 10
17.976675
 20
17.403067
 30
0.000000
 11
18.009468
 21
17.471664
 31
0.000000
  0
LINE
  8
1
 10
18.009468
 20
17.471664
 30
0.000000
 11
18.042418
 21
17.542170
 31
0.000000
  0
LINE
  8
1
 10
18.042418
 20
17.542170
 30
0.000000
 11
18.075495
 21
17.614586
 31
0.000000
  0
LINE
  8
1
 10
18.075495
 20
17.614586
 30
0.000000
 11
18.108667
 21
17.688921
 31
0.000000
  0
LINE
  8
1
 10
18.108667
 20
17.688921
 30
0.000000
 11
18.141905
 21
17.765182
 31
0.000000
  0
LINE
  8
1
 10
18.141905
 20
17.765182
 30
0.000000
 11
18.175175
 21
17.843376
 31
0.000000
  0
LINE
  8
1
 10
18.175175
 20
17.843376
 30
0.000000
 11
18.208448
 21
17.923512
 31
0.000000
  0
LINE
  8
1
 10
18.208448
 20
17.923512
 30
0.000000
 11
18.241693
 21
18.005592
 31
0.000000
  0
LINE
  8
1
 10
18.241693
 20
18.005592
 30
0.000000
 11
18.274878
 21
18.089624
 31
0.000000
  0
LINE
  8
1
 10
18.274878
 20
18.089624
 30
0.000000
 11
18.307970
 21
18.175611
 31
0.000000
  0
LINE
  8
1
 10
18.307970
 20
18.175611
 30
0.000000
 11
18.340939
 21
18.263559
 31
0.000000
  0
LINE
  8
1
 10
18.340939
 20
18.263559
 30
0.000000
 11
18.373751
 21
18.353472
 31
0.000000
  0
LINE
  8
1
 10
18.373751
 20
18.353472
 30
0.000000
 11
18.406378
 21
18.445354
 31
0.000000
  0
LINE
  8
1
 10
18.406378
 20
18.445354
 30
0.000000
 11
18.438786
 21
18.539209
 31
0.000000
  0
LINE
  8
1
 10
18.438786
 20
18.539209
 30
0.000000
 11
18.470940
 21
18.635038
 31
0.000000
  0
LINE
  8
1
 10
18.470940
 20
18.635038
 30
0.000000
 11
18.502813
 21
18.732845
 31
0.000000
  0
LINE
  8
1
 10
18.502813
 20
18.732845
 30
0.000000
 11
18.534369
 21
18.832632
 31
0.000000
  0
LINE
  8
1
 10
18.534369
 20
18.832632
 30
0.000000
 11
18.565580
 21
18.934402
 31
0.000000
  0
LINE
  8
1
 10
18.565580
 20
18.934402
 30
0.000000
 11
18.596411
 21
19.038157
 31
0.000000
  0
LINE
  8
1
 10
18.596411
 20
19.038157
 30
0.000000
 11
18.626827
 21
19.143892
 31
0.000000
  0
LINE
  8
1
 10
18.626827
 20
19.143892
 30
0.000000
 11
18.656801
 21
19.251616
 31
0.000000
  0
LINE
  8
1
 10
18.656801
 20
19.251616
 30
0.000000
 11
18.686300
 21
19.361322
 31
0.000000
  0
LINE
  8
1
 10
18.686300
 20
19.361322
 30
0.000000
 11
18.712831
 21
19.463554
 31
0.000000
  0
LINE
  8
1
 10
18.712831
 20
19.463554
 30
0.000000
 11
17.648884
 21
20.433229
 31
0.000000
  0
LINE
  8
1
 10
17.648884
 20
20.433229
 30
0.000000
 11
17.549547
 21
20.397352
 31
0.000000
  0
LINE
  8
1
 10
17.549547
 20
20.397352
 30
0.000000
 11
17.443039
 21
20.357832
 31
0.000000
  0
LINE
  8
1
 10
17.443039
 20
20.357832
 30
0.000000
 11
17.338551
 21
20.318020
 31
0.000000
  0
LINE
  8
1
 10
17.338551
 20
20.318020
 30
0.000000
 11
17.236082
 21
20.277952
 31
0.000000
  0
LINE
  8
1
 10
17.236082
 20
20.277952
 30
0.000000
 11
17.135626
 21
20.237656
 31
0.000000
  0
LINE
  8
1
 10
17.135626
 20
20.237656
 30
0.000000
 11
17.037180
 21
20.197163
 31
0.000000
  0
LINE
  8
1
 10
17.037180
 20
20.197163
 30
0.000000
 11
16.940741
 21
20.156509
 31
0.000000
  0
LINE
  8
1
 10
16.940741
 20
20.156509
 30
0.000000
 11
16.846300
 21
20.115725
 31
0.000000
  0
LINE
  8
1
 10
16.846300
 20
20.115725
 30
0.000000
 11
16.753857
 21
20.074842
 31
0.000000
  0
LINE
  8
1
 10
16.753857
 20
20.074842
 30
0.000000
 11
16.663403
 21
20.033892
 31
0.000000
  0
LINE
  8
1
 10
16.663403
 20
20.033892
 30
0.000000
 11
16.574934
 21
19.992905
 31
0.000000
  0
LINE
  8
1
 10
16.574934
 20
19.992905
 30
0.000000
 11
16.488441
 21
19.951914
 31
0.000000
  0
LINE
  8
1
 10
16.488441
 20
19.951914
 30
0.000000
 11
16.403921
 21
19.910952
 31
0.000000
  0
LINE
  8
1
 10
16.403921
 20
19.910952
 30
0.000000
 11
16.321363
 21
19.870045
 31
0.000000
  0
LINE
  8
1
 10
16.321363
 20
19.870045
 30
0.000000
 11
16.240763
 21
19.829229
 31
0.000000
  0
LINE
  8
1
 10
16.240763
 20
19.829229
 30
0.000000
 11
16.162109
 21
19.788532
 31
0.000000
  0
LINE
  8
1
 10
16.162109
 20
19.788532
 30
0.000000
 11
16.085398
 21
19.747990
 31
0.000000
  0
LINE
  8
1
 10
16.085398
 20
19.747990
 30
0.000000
 11
16.010614
 21
19.707626
 31
0.000000
  0
LINE
  8
1
 10
16.010614
 20
19.707626
 30
0.000000
 11
15.937756
 21
19.667477
 31
0.000000
  0
LINE
  8
1
 10
15.937756
 20
19.667477
 30
0.000000
 11
15.866808
 21
19.627569
 31
0.000000
  0
LINE
  8
1
 10
15.866808
 20
19.627569
 30
0.000000
 11
15.797763
 21
19.587934
 31
0.000000
  0
LINE
  8
1
 10
15.797763
 20
19.587934
 30
0.000000
 11
15.730610
 21
19.548603
 31
0.000000
  0
LINE
  8
1
 10
15.730610
 20
19.548603
 30
0.000000
 11
15.665339
 21
19.509605
 31
0.000000
  0
LINE
  8
1
 10
15.665339
 20
19.509605
 30
0.000000
 11
15.601938
 21
19.470972
 31
0.000000
  0
LINE
  8
1
 10
15.601938
 20
19.470972
 30
0.000000
 11
15.540396
 21
19.432728
 31
0.000000
  0
LINE
  8
1
 10
15.540396
 20
19.432728
 30
0.000000
 11
15.480702
 21
19.394907
 31
0.000000
  0
LINE
  8
1
 10
15.480702
 20
19.394907
 30
0.000000
 11
15.422842
 21
19.357538
 31
0.000000
  0
LINE
  8
1
 10
15.422842
 20
19.357538
 30
0.000000
 11
15.366806
 21
19.320648
 31
0.000000
  0
LINE
  8
1
 10
15.366806
 20
19.320648
 30
0.000000
 11
15.312579
 21
19.284269
 31
0.000000
  0
LINE
  8
1
 10
15.312579
 20
19.284269
 30
0.000000
 11
15.260149
 21
19.248426
 31
0.000000
  0
LINE
  8
1
 10
15.260149
 20
19.248426
 30
0.000000
 11
15.209501
 21
19.213152
 31
0.000000
  0
LINE
  8
1
 10
15.209501
 20
19.213152
 30
0.000000
 11
15.160622
 21
19.178469
 31
0.000000
  0
LINE
  8
1
 10
15.160622
 20
19.178469
 30
0.000000
 11
15.113498
 21
19.144411
 31
0.000000
  0
LINE
  8
1
 10
15.113498
 20
19.144411
 30
0.000000
 11
15.068113
 21
19.111004
 31
0.000000
  0
LINE
  8
1
 10
15.068113
 20
19.111004
 30
0.000000
 11
15.024453
 21
19.078274
 31
0.000000
  0
LINE
  8
1
 10
15.024453
 20
19.078274
 30
0.000000
 11
14.982503
 21
19.046249
 31
0.000000
  0
LINE
  8
1
 10
14.982503
 20
19.046249
 30
0.000000
 11
14.942246
 21
19.014961
 31
0.000000
  0
LINE
  8
1
 10
14.942246
 20
19.014961
 30
0.000000
 11
14.903666
 21
18.984430
 31
0.000000
  0
LINE
  8
1
 10
14.903666
 20
18.984430
 30
0.000000
 11
14.866747
 21
18.954685
 31
0.000000
  0
LINE
  8
1
 10
14.866747
 20
18.954685
 30
0.000000
 11
14.831472
 21
18.925756
 31
0.000000
  0
LINE
  8
1
 10
14.831472
 20
18.925756
 30
0.000000
 11
14.797826
 21
18.897665
 31
0.000000
  0
LINE
  8
1
 10
14.797826
 20
18.897665
 30
0.000000
 11
14.765788
 21
18.870441
 31
0.000000
  0
LINE
  8
1
 10
14.765788
 20
18.870441
 30
0.000000
 11
14.735342
 21
18.844109
 31
0.000000
  0
LINE
  8
1
 10
14.735342
 20
18.844109
 30
0.000000
 11
14.706470
 21
18.818695
 31
0.000000
  0
LINE
  8
1
 10
14.706470
 20
18.818695
 30
0.000000
 11
14.679153
 21
18.794222
 31
0.000000
  0
LINE
  8
1
 10
14.679153
 20
18.794222
 30
0.000000
 11
14.653374
 21
18.770718
 31
0.000000
  0
LINE
  8
1
 10
14.653374
 20
18.770718
 30
0.000000
 11
14.629112
 21
18.748207
 31
0.000000
  0
LINE
  8
1
 10
14.629112
 20
18.748207
 30
0.000000
 11
14.606347
 21
18.726713
 31
0.000000
  0
LINE
  8
1
 10
14.606347
 20
18.726713
 30
0.000000
 11
14.585062
 21
18.706261
 31
0.000000
  0
LINE
  8
1
 10
14.585062
 20
18.706261
 30
0.000000
 11
14.565234
 21
18.686874
 31
0.000000
  0
LINE
  8
1
 10
14.565234
 20
18.686874
 30
0.000000
 11
14.546845
 21
18.668579
 31
0.000000
  0
LINE
  8
1
 10
14.546845
 20
18.668579
 30
0.000000
 11
14.529873
 21
18.651394
 31
0.000000
  0
LINE
  8
1
 10
14.529873
 20
18.651394
 30
0.000000
 11
14.514297
 21
18.635347
 31
0.000000
  0
LINE
  8
1
 10
14.514297
 20
18.635347
 30
0.000000
 11
14.500098
 21
18.620461
 31
0.000000
  0
LINE
  8
1
 10
14.500098
 20
18.620461
 30
0.000000
 11
14.487251
 21
18.606752
 31
0.000000
  0
LINE
  8
1
 10
14.487251
 20
18.606752
 30
0.000000
 11
14.475737
 21
18.594252
 31
0.000000
  0
LINE
  8
1
 10
14.475737
 20
18.594252
 30
0.000000
 11
14.465534
 21
18.582977
 31
0.000000
  0
LINE
  8
1
 10
14.465534
 20
18.582977
 30
0.000000
 11
14.456616
 21
18.572950
 31
0.000000
  0
LINE
  8
1
 10
14.456616
 20
18.572950
 30
0.000000
 11
14.448965
 21
18.564194
 31
0.000000
  0
LINE
  8
1
 10
14.448965
 20
18.564194
 30
0.000000
 11
14.442554
 21
18.556728
 31
0.000000
  0
LINE
  8
1
 10
14.442554
 20
18.556728
 30
0.000000
 11
14.437365
 21
18.550575
 31
0.000000
  0
LINE
  8
1
 10
14.437365
 20
18.550575
 30
0.000000
 11
14.433368
 21
18.545753
 31
0.000000
  0
LINE
  8
1
 10
14.433368
 20
18.545753
 30
0.000000
 11
14.430544
 21
18.542286
 31
0.000000
  0
LINE
  8
1
 10
14.430544
 20
18.542286
 30
0.000000
 11
14.428313
 21
18.539488
 31
0.000000
  0
LINE
  8
1
 10
14.428313
 20
18.539488
 30
0.000000
 11
13.818862
 21
17.756380
 31
0.000000
  0
LINE
  8
1
 10
13.818862
 20
17.756380
 30
0.000000
 11
12.056102
 21
18.997379
 31
0.000000
  0
LINE
  8
1
 10
12.056102
 20
18.997379
 30
0.000000
 11
12.587811
 21
19.835218
 31
0.000000
  0
LINE
  8
1
 10
12.587811
 20
19.835218
 30
0.000000
 11
12.589693
 21
19.838261
 31
0.000000
  0
LINE
  8
1
 10
12.589693
 20
19.838261
 30
0.000000
 11
12.592005
 21
19.842089
 31
0.000000
  0
LINE
  8
1
 10
12.592005
 20
19.842089
 30
0.000000
 11
12.595197
 21
19.847477
 31
0.000000
  0
LINE
  8
1
 10
12.595197
 20
19.847477
 30
0.000000
 11
12.599238
 21
19.854439
 31
0.000000
  0
LINE
  8
1
 10
12.599238
 20
19.854439
 30
0.000000
 11
12.604105
 21
19.862991
 31
0.000000
  0
LINE
  8
1
 10
12.604105
 20
19.862991
 30
0.000000
 11
12.609769
 21
19.873148
 31
0.000000
  0
LINE
  8
1
 10
12.609769
 20
19.873148
 30
0.000000
 11
12.616201
 21
19.884924
 31
0.000000
  0
LINE
  8
1
 10
12.616201
 20
19.884924
 30
0.000000
 11
12.623373
 21
19.898331
 31
0.000000
  0
LINE
  8
1
 10
12.623373
 20
19.898331
 30
0.000000
 11
12.631259
 21
19.913387
 31
0.000000
  0
LINE
  8
1
 10
12.631259
 20
19.913387
 30
0.000000
 11
12.639831
 21
19.930103
 31
0.000000
  0
LINE
  8
1
 10
12.639831
 20
19.930103
 30
0.000000
 11
12.649057
 21
19.948492
 31
0.000000
  0
LINE
  8
1
 10
12.649057
 20
19.948492
 30
0.000000
 11
12.658913
 21
19.968567
 31
0.000000
  0
LINE
  8
1
 10
12.658913
 20
19.968567
 30
0.000000
 11
12.669366
 21
19.990339
 31
0.000000
  0
LINE
  8
1
 10
12.669366
 20
19.990339
 30
0.000000
 11
12.680388
 21
20.013821
 31
0.000000
  0
LINE
  8
1
 10
12.680388
 20
20.013821
 30
0.000000
 11
12.691954
 21
20.039024
 31
0.000000
  0
LINE
  8
1
 10
12.691954
 20
20.039024
 30
0.000000
 11
12.704029
 21
20.065960
 31
0.000000
  0
LINE
  8
1
 10
12.704029
 20
20.065960
 30
0.000000
 11
12.716588
 21
20.094641
 31
0.000000
  0
LINE
  8
1
 10
12.716588
 20
20.094641
 30
0.000000
 11
12.729598
 21
20.125072
 31
0.000000
  0
LINE
  8
1
 10
12.729598
 20
20.125072
 30
0.000000
 11
12.743032
 21
20.157269
 31
0.000000
  0
LINE
  8
1
 10
12.743032
 20
20.157269
 30
0.000000
 11
12.756859
 21
20.191238
 31
0.000000
  0
LINE
  8
1
 10
12.756859
 20
20.191238
 30
0.000000
 11
12.771048
 21
20.226990
 31
0.000000
  0
LINE
  8
1
 10
12.771048
 20
20.226990
 30
0.000000
 11
12.785570
 21
20.264532
 31
0.000000
  0
LINE
  8
1
 10
12.785570
 20
20.264532
 30
0.000000
 11
12.800396
 21
20.303873
 31
0.000000
  0
LINE
  8
1
 10
12.800396
 20
20.303873
 30
0.000000
 11
12.815494
 21
20.345022
 31
0.000000
  0
LINE
  8
1
 10
12.815494
 20
20.345022
 30
0.000000
 11
12.830832
 21
20.387985
 31
0.000000
  0
LINE
  8
1
 10
12.830832
 20
20.387985
 30
0.000000
 11
12.846385
 21
20.432774
 31
0.000000
  0
LINE
  8
1
 10
12.846385
 20
20.432774
 30
0.000000
 11
12.862117
 21
20.479389
 31
0.000000
  0
LINE
  8
1
 10
12.862117
 20
20.479389
 30
0.000000
 11
12.877997
 21
20.527840
 31
0.000000
  0
LINE
  8
1
 10
12.877997
 20
20.527840
 30
0.000000
 11
12.893998
 21
20.578133
 31
0.000000
  0
LINE
  8
1
 10
12.893998
 20
20.578133
 30
0.000000
 11
12.910088
 21
20.630272
 31
0.000000
  0
LINE
  8
1
 10
12.910088
 20
20.630272
 30
0.000000
 11
12.926232
 21
20.684263
 31
0.000000
  0
LINE
  8
1
 10
12.926232
 20
20.684263
 30
0.000000
 11
12.942405
 21
20.740112
 31
0.000000
  0
LINE
  8
1
 10
12.942405
 20
20.740112
 30
0.000000
 11
12.958571
 21
20.797825
 31
0.000000
  0
LINE
  8
1
 10
12.958571
 20
20.797825
 30
0.000000
 11
12.974700
 21
20.857401
 31
0.000000
  0
LINE
  8
1
 10
12.974700
 20
20.857401
 30
0.000000
 11
12.990762
 21
20.918848
 31
0.000000
  0
LINE
  8
1
 10
12.990762
 20
20.918848
 30
0.000000
 11
13.006723
 21
20.982166
 31
0.000000
  0
LINE
  8
1
 10
13.006723
 20
20.982166
 30
0.000000
 11
13.022554
 21
21.047361
 31
0.000000
  0
LINE
  8
1
 10
13.022554
 20
21.047361
 30
0.000000
 11
13.038223
 21
21.114433
 31
0.000000
  0
LINE
  8
1
 10
13.038223
 20
21.114433
 30
0.000000
 11
13.053698
 21
21.183386
 31
0.000000
  0
LINE
  8
1
 10
13.053698
 20
21.183386
 30
0.000000
 11
13.068947
 21
21.254219
 31
0.000000
  0
LINE
  8
1
 10
13.068947
 20
21.254219
 30
0.000000
 11
13.083938
 21
21.326933
 31
0.000000
  0
LINE
  8
1
 10
13.083938
 20
21.326933
 30
0.000000
 11
13.098639
 21
21.401533
 31
0.000000
  0
LINE
  8
1
 10
13.098639
 20
21.401533
 30
0.000000
 11
13.113021
 21
21.478016
 31
0.000000
  0
LINE
  8
1
 10
13.113021
 20
21.478016
 30
0.000000
 11
13.127049
 21
21.556383
 31
0.000000
  0
LINE
  8
1
 10
13.127049
 20
21.556383
 30
0.000000
 11
13.140694
 21
21.636633
 31
0.000000
  0
LINE
  8
1
 10
13.140694
 20
21.636633
 30
0.000000
 11
13.153921
 21
21.718763
 31
0.000000
  0
LINE
  8
1
 10
13.153921
 20
21.718763
 30
0.000000
 11
13.166700
 21
21.802776
 31
0.000000
  0
LINE
  8
1
 10
13.166700
 20
21.802776
 30
0.000000
 11
13.178999
 21
21.888668
 31
0.000000
  0
LINE
  8
1
 10
13.178999
 20
21.888668
 30
0.000000
 11
13.190787
 21
21.976439
 31
0.000000
  0
LINE
  8
1
 10
13.190787
 20
21.976439
 30
0.000000
 11
13.202031
 21
22.066082
 31
0.000000
  0
LINE
  8
1
 10
13.202031
 20
22.066082
 30
0.000000
 11
13.212700
 21
22.157598
 31
0.000000
  0
LINE
  8
1
 10
13.212700
 20
22.157598
 30
0.000000
 11
13.222760
 21
22.250980
 31
0.000000
  0
LINE
  8
1
 10
13.222760
 20
22.250980
 30
0.000000
 11
13.232183
 21
22.346230
 31
0.000000
  0
LINE
  8
1
 10
13.232183
 20
22.346230
 30
0.000000
 11
13.240933
 21
22.443340
 31
0.000000
  0
LINE
  8
1
 10
13.240933
 20
22.443340
 30
0.000000
 11
13.248981
 21
22.542305
 31
0.000000
  0
LINE
  8
1
 10
13.248981
 20
22.542305
 30
0.000000
 11
13.256294
 21
22.643120
 31
0.000000
  0
LINE
  8
1
 10
13.256294
 20
22.643120
 30
0.000000
 11
13.262843
 21
22.745781
 31
0.000000
  0
LINE
  8
1
 10
13.262843
 20
22.745781
 30
0.000000
 11
13.268592
 21
22.850281
 31
0.000000
  0
LINE
  8
1
 10
13.268592
 20
22.850281
 30
0.000000
 11
13.273513
 21
22.956615
 31
0.000000
  0
LINE
  8
1
 10
13.273513
 20
22.956615
 30
0.000000
 11
13.277573
 21
23.064775
 31
0.000000
  0
LINE
  8
1
 10
13.277573
 20
23.064775
 30
0.000000
 11
13.280739
 21
23.174755
 31
0.000000
  0
LINE
  8
1
 10
13.280739
 20
23.174755
 30
0.000000
 11
13.282981
 21
23.286547
 31
0.000000
  0
LINE
  8
1
 10
13.282981
 20
23.286547
 30
0.000000
 11
13.284268
 21
23.400145
 31
0.000000
  0
LINE
  8
1
 10
13.284268
 20
23.400145
 30
0.000000
 11
13.284544
 21
23.505762
 31
0.000000
  0
LINE
  8
1
 10
13.284544
 20
23.505762
 30
0.000000
 11
12.012875
 21
24.180380
 31
0.000000
  0
LINE
  8
1
 10
12.012875
 20
24.180380
 30
0.000000
 11
11.925580
 21
24.120926
 31
0.000000
  0
LINE
  8
1
 10
11.925580
 20
24.120926
 30
0.000000
 11
11.832246
 21
24.056160
 31
0.000000
  0
LINE
  8
1
 10
11.832246
 20
24.056160
 30
0.000000
 11
11.740942
 21
23.991615
 31
0.000000
  0
LINE
  8
1
 10
11.740942
 20
23.991615
 30
0.000000
 11
11.651657
 21
23.927320
 31
0.000000
  0
LINE
  8
1
 10
11.651657
 20
23.927320
 30
0.000000
 11
11.564379
 21
23.863308
 31
0.000000
  0
LINE
  8
1
 10
11.564379
 20
23.863308
 30
0.000000
 11
11.479095
 21
23.799606
 31
0.000000
  0
LINE
  8
1
 10
11.479095
 20
23.799606
 30
0.000000
 11
11.395795
 21
23.736246
 31
0.000000
  0
LINE
  8
1
 10
11.395795
 20
23.736246
 30
0.000000
 11
11.314465
 21
23.673256
 31
0.000000
  0
LINE
  8
1
 10
11.314465
 20
23.673256
 30
0.000000
 11
11.235093
 21
23.610668
 31
0.000000
  0
LINE
  8
1
 10
11.235093
 20
23.610668
 30
0.000000
 11
11.157665
 21
23.548510
 31
0.000000
  0
LINE
  8
1
 10
11.157665
 20
23.548510
 30
0.000000
 11
11.082168
 21
23.486809
 31
0.000000
  0
LINE
  8
1
 10
11.082168
 20
23.486809
 30
0.000000
 11
11.008587
 21
23.425596
 31
0.000000
  0
LINE
  8
1
 10
11.008587
 20
23.425596
 30
0.000000
 11
10.936910
 21
23.364901
 31
0.000000
  0
LINE
  8
1
 10
10.936910
 20
23.364901
 30
0.000000
 11
10.867118
 21
23.304749
 31
0.000000
  0
LINE
  8
1
 10
10.867118
 20
23.304749
 30
0.000000
 11
10.799200
 21
23.245171
 31
0.000000
  0
LINE
  8
1
 10
10.799200
 20
23.245171
 30
0.000000
 11
10.733139
 21
23.186193
 31
0.000000
  0
LINE
  8
1
 10
10.733139
 20
23.186193
 30
0.000000
 11
10.668919
 21
23.127844
 31
0.000000
  0
LINE
  8
1
 10
10.668919
 20
23.127844
 30
0.000000
 11
10.606524
 21
23.070152
 31
0.000000
  0
LINE
  8
1
 10
10.606524
 20
23.070152
 30
0.000000
 11
10.545938
 21
23.013145
 31
0.000000
  0
LINE
  8
1
 10
10.545938
 20
23.013145
 30
0.000000
 11
10.487144
 21
22.956848
 31
0.000000
  0
LINE
  8
1
 10
10.487144
 20
22.956848
 30
0.000000
 11
10.430125
 21
22.901287
 31
0.000000
  0
LINE
  8
1
 10
10.430125
 20
22.901287
 30
0.000000
 11
10.374863
 21
22.846491
 31
0.000000
  0
LINE
  8
1
 10
10.374863
 20
22.846491
 30
0.000000
 11
10.321341
 21
22.792486
 31
0.000000
  0
LINE
  8
1
 10
10.321341
 20
22.792486
 30
0.000000
 11
10.269541
 21
22.739300
 31
0.000000
  0
LINE
  8
1
 10
10.269541
 20
22.739300
 30
0.000000
 11
10.219442
 21
22.686953
 31
0.000000
  0
LINE
  8
1
 10
10.219442
 20
22.686953
 30
0.000000
 11
10.171029
 21
22.635475
 31
0.000000
  0
LINE
  8
1
 10
10.171029
 20
22.635475
 30
0.000000
 11
10.124281
 21
22.584890
 31
0.000000
  0
LINE
  8
1
 10
10.124281
 20
22.584890
 30
0.000000
 11
10.079179
 21
22.535223
 31
0.000000
  0
LINE
  8
1
 10
10.079179
 20
22.535223
 30
0.000000
 11
10.035704
 21
22.486502
 31
0.000000
  0
LINE
  8
1
 10
10.035704
 20
22.486502
 30
0.000000
 11
9.993834
 21
22.438745
 31
0.000000
  0
LINE
  8
1
 10
9.993834
 20
22.438745
 30
0.000000
 11
9.953549
 21
22.391983
 31
0.000000
  0
LINE
  8
1
 10
9.953549
 20
22.391983
 30
0.000000
 11
9.914831
 21
22.346235
 31
0.000000
  0
LINE
  8
1
 10
9.914831
 20
22.346235
 30
0.000000
 11
9.877657
 21
22.301527
 31
0.000000
  0
LINE
  8
1
 10
9.877657
 20
22.301527
 30
0.000000
 11
9.842007
 21
22.257883
 31
0.000000
  0
LINE
  8
1
 10
9.842007
 20
22.257883
 30
0.000000
 11
9.807858
 21
22.215324
 31
0.000000
  0
LINE
  8
1
 10
9.807858
 20
22.215324
 30
0.000000
 11
9.775189
 21
22.173874
 31
0.000000
  0
LINE
  8
1
 10
9.775189
 20
22.173874
 30
0.000000
 11
9.743979
 21
22.133556
 31
0.000000
  0
LINE
  8
1
 10
9.743979
 20
22.133556
 30
0.000000
 11
9.714204
 21
22.094389
 31
0.000000
  0
LINE
  8
1
 10
9.714204
 20
22.094389
 30
0.000000
 11
9.685842
 21
22.056398
 31
0.000000
  0
LINE
  8
1
 10
9.685842
 20
22.056398
 30
0.000000
 11
9.658871
 21
22.019606
 31
0.000000
  0
LINE
  8
1
 10
9.658871
 20
22.019606
 30
0.000000
 11
9.633265
 21
21.984030
 31
0.000000
  0
LINE
  8
1
 10
9.633265
 20
21.984030
 30
0.000000
 11
9.609005
 21
21.949694
 31
0.000000
  0
LINE
  8
1
 10
9.609005
 20
21.949694
 30
0.000000
 11
9.586064
 21
21.916616
 31
0.000000
  0
LINE
  8
1
 10
9.586064
 20
21.916616
 30
0.000000
 11
9.564421
 21
21.884821
 31
0.000000
  0
LINE
  8
1
 10
9.564421
 20
21.884821
 30
0.000000
 11
9.544047
 21
21.854322
 31
0.000000
  0
LINE
  8
1
 10
9.544047
 20
21.854322
 30
0.000000
 11
9.524923
 21
21.825146
 31
0.000000
  0
LINE
  8
1
 10
9.524923
 20
21.825146
 30
0.000000
 11
9.507022
 21
21.797310
 31
0.000000
  0
LINE
  8
1
 10
9.507022
 20
21.797310
 30
0.000000
 11
9.490317
 21
21.770828
 31
0.000000
  0
LINE
  8
1
 10
9.490317
 20
21.770828
 30
0.000000
 11
9.474787
 21
21.745726
 31
0.000000
  0
LINE
  8
1
 10
9.474787
 20
21.745726
 30
0.000000
 11
9.460403
 21
21.722017
 31
0.000000
  0
LINE
  8
1
 10
9.460403
 20
21.722017
 30
0.000000
 11
9.447143
 21
21.699724
 31
0.000000
  0
LINE
  8
1
 10
9.447143
 20
21.699724
 30
0.000000
 11
9.434977
 21
21.678858
 31
0.000000
  0
LINE
  8
1
 10
9.434977
 20
21.678858
 30
0.000000
 11
9.423882
 21
21.659441
 31
0.000000
  0
LINE
  8
1
 10
9.423882
 20
21.659441
 30
0.000000
 11
9.413831
 21
21.641491
 31
0.000000
  0
LINE
  8
1
 10
9.413831
 20
21.641491
 30
0.000000
 11
9.404796
 21
21.625019
 31
0.000000
  0
LINE
  8
1
 10
9.404796
 20
21.625019
 30
0.000000
 11
9.396752
 21
21.610048
 31
0.000000
  0
LINE
  8
1
 10
9.396752
 20
21.610048
 30
0.000000
 11
9.389673
 21
21.596592
 31
0.000000
  0
LINE
  8
1
 10
9.389673
 20
21.596592
 30
0.000000
 11
9.383530
 21
21.584661
 31
0.000000
  0
LINE
  8
1
 10
9.383530
 20
21.584661
 30
0.000000
 11
9.378296
 21
21.574278
 31
0.000000
  0
LINE
  8
1
 10
9.378296
 20
21.574278
 30
0.000000
 11
9.373944
 21
21.565453
 31
0.000000
  0
LINE
  8
1
 10
9.373944
 20
21.565453
 30
0.000000
 11
9.370447
 21
21.558201
 31
0.000000
  0
LINE
  8
1
 10
9.370447
 20
21.558201
 30
0.000000
 11
9.367775
 21
21.552538
 31
0.000000
  0
LINE
  8
1
 10
9.367775
 20
21.552538
 30
0.000000
 11
9.365902
 21
21.548477
 31
0.000000
  0
LINE
  8
1
 10
9.365902
 20
21.548477
 30
0.000000
 11
9.364438
 21
21.545212
 31
0.000000
  0
LINE
  8
1
 10
9.364438
 20
21.545212
 30
0.000000
 11
8.968884
 21
20.635141
 31
0.000000
  0
LINE
  8
1
 10
8.968884
 20
20.635141
 30
0.000000
 11
6.952883
 21
21.398771
 31
0.000000
  0
LINE
  8
1
 10
6.952883
 20
21.398771
 30
0.000000
 11
7.259525
 21
22.342520
 31
0.000000
  0
LINE
  8
1
 10
7.259525
 20
22.342520
 30
0.000000
 11
7.260591
 21
22.345936
 31
0.000000
  0
LINE
  8
1
 10
7.260591
 20
22.345936
 30
0.000000
 11
7.261878
 21
22.350218
 31
0.000000
  0
LINE
  8
1
 10
7.261878
 20
22.350218
 30
0.000000
 11
7.263630
 21
22.356232
 31
0.000000
  0
LINE
  8
1
 10
7.263630
 20
22.356232
 30
0.000000
 11
7.265813
 21
22.363979
 31
0.000000
  0
LINE
  8
1
 10
7.265813
 20
22.363979
 30
0.000000
 11
7.268401
 21
22.373472
 31
0.000000
  0
LINE
  8
1
 10
7.268401
 20
22.373472
 30
0.000000
 11
7.271360
 21
22.384720
 31
0.000000
  0
LINE
  8
1
 10
7.271360
 20
22.384720
 30
0.000000
 11
7.274662
 21
22.397724
 31
0.000000
  0
LINE
  8
1
 10
7.274662
 20
22.397724
 30
0.000000
 11
7.278275
 21
22.412495
 31
0.000000
  0
LINE
  8
1
 10
7.278275
 20
22.412495
 30
0.000000
 11
7.282168
 21
22.429039
 31
0.000000
  0
LINE
  8
1
 10
7.282168
 20
22.429039
 30
0.000000
 11
7.286314
 21
22.447361
 31
0.000000
  0
LINE
  8
1
 10
7.286314
 20
22.447361
 30
0.000000
 11
7.290678
 21
22.467466
 31
0.000000
  0
LINE
  8
1
 10
7.290678
 20
22.467466
 30
0.000000
 11
7.295230
 21
22.489361
 31
0.000000
  0
LINE
  8
1
 10
7.295230
 20
22.489361
 30
0.000000
 11
7.299941
 21
22.513050
 31
0.000000
  0
LINE
  8
1
 10
7.299941
 20
22.513050
 30
0.000000
 11
7.304778
 21
22.538534
 31
0.000000
  0
LINE
  8
1
 10
7.304778
 20
22.538534
 30
0.000000
 11
7.309711
 21
22.565823
 31
0.000000
  0
LINE
  8
1
 10
7.309711
 20
22.565823
 30
0.000000
 11
7.314709
 21
22.594915
 31
0.000000
  0
LINE
  8
1
 10
7.314709
 20
22.594915
 30
0.000000
 11
7.319740
 21
22.625818
 31
0.000000
  0
LINE
  8
1
 10
7.319740
 20
22.625818
 30
0.000000
 11
7.324773
 21
22.658529
 31
0.000000
  0
LINE
  8
1
 10
7.324773
 20
22.658529
 30
0.000000
 11
7.329778
 21
22.693054
 31
0.000000
  0
LINE
  8
1
 10
7.329778
 20
22.693054
 30
0.000000
 11
7.334723
 21
22.729395
 31
0.000000
  0
LINE
  8
1
 10
7.334723
 20
22.729395
 30
0.000000
 11
7.339576
 21
22.767551
 31
0.000000
  0
LINE
  8
1
 10
7.339576
 20
22.767551
 30
0.000000
 11
7.344306
 21
22.807528
 31
0.000000
  0
LINE
  8
1
 10
7.344306
 20
22.807528
 30
0.000000
 11
7.348881
 21
22.849319
 31
0.000000
  0
LINE
  8
1
 10
7.348881
 20
22.849319
 30
0.000000
 11
7.353271
 21
22.892931
 31
0.000000
  0
LINE
  8
1
 10
7.353271
 20
22.892931
 30
0.000000
 11
7.357444
 21
22.938358
 31
0.000000
  0
LINE
  8
1
 10
7.357444
 20
22.938358
 30
0.000000
 11
7.361369
 21
22.985607
 31
0.000000
  0
LINE
  8
1
 10
7.361369
 20
22.985607
 30
0.000000
 11
7.365014
 21
23.034670
 31
0.000000
  0
LINE
  8
1
 10
7.365014
 20
23.034670
 30
0.000000
 11
7.368347
 21
23.085548
 31
0.000000
  0
LINE
  8
1
 10
7.368347
 20
23.085548
 30
0.000000
 11
7.371338
 21
23.138239
 31
0.000000
  0
LINE
  8
1
 10
7.371338
 20
23.138239
 30
0.000000
 11
7.373955
 21
23.192743
 31
0.000000
  0
LINE
  8
1
 10
7.373955
 20
23.192743
 30
0.000000
 11
7.376166
 21
23.249054
 31
0.000000
  0
LINE
  8
1
 10
7.376166
 20
23.249054
 30
0.000000
 11
7.377940
 21
23.307171
 31
0.000000
  0
LINE
  8
1
 10
7.377940
 20
23.307171
 30
0.000000
 11
7.379246
 21
23.367090
 31
0.000000
  0
LINE
  8
1
 10
7.379246
 20
23.367090
 30
0.000000
 11
7.380053
 21
23.428806
 31
0.000000
  0
LINE
  8
1
 10
7.380053
 20
23.428806
 30
0.000000
 11
7.380329
 21
23.492317
 31
0.000000
  0
LINE
  8
1
 10
7.380329
 20
23.492317
 30
0.000000
 11
7.380042
 21
23.557615
 31
0.000000
  0
LINE
  8
1
 10
7.380042
 20
23.557615
 30
0.000000
 11
7.379163
 21
23.624697
 31
0.000000
  0
LINE
  8
1
 10
7.379163
 20
23.624697
 30
0.000000
 11
7.377659
 21
23.693560
 31
0.000000
  0
LINE
  8
1
 10
7.377659
 20
23.693560
 30
0.000000
 11
7.375500
 21
23.764193
 31
0.000000
  0
LINE
  8
1
 10
7.375500
 20
23.764193
 30
0.000000
 11
7.372654
 21
23.836594
 31
0.000000
  0
LINE
  8
1
 10
7.372654
 20
23.836594
 30
0.000000
 11
7.369090
 21
23.910753
 31
0.000000
  0
LINE
  8
1
 10
7.369090
 20
23.910753
 30
0.000000
 11
7.364779
 21
23.986664
 31
0.000000
  0
LINE
  8
1
 10
7.364779
 20
23.986664
 30
0.000000
 11
7.359687
 21
24.064322
 31
0.000000
  0
LINE
  8
1
 10
7.359687
 20
24.064322
 30
0.000000
 11
7.353786
 21
24.143715
 31
0.000000
  0
LINE
  8
1
 10
7.353786
 20
24.143715
 30
0.000000
 11
7.347044
 21
24.224836
 31
0.000000
  0
LINE
  8
1
 10
7.347044
 20
24.224836
 30
0.000000
 11
7.339431
 21
24.307676
 31
0.000000
  0
LINE
  8
1
 10
7.339431
 20
24.307676
 30
0.000000
 11
7.330915
 21
24.392227
 31
0.000000
  0
LINE
  8
1
 10
7.330915
 20
24.392227
 30
0.000000
 11
7.321468
 21
24.478479
 31
0.000000
  0
LINE
  8
1
 10
7.321468
 20
24.478479
 30
0.000000
 11
7.311058
 21
24.566425
 31
0.000000
  0
LINE
  8
1
 10
7.311058
 20
24.566425
 30
0.000000
 11
7.299655
 21
24.656048
 31
0.000000
  0
LINE
  8
1
 10
7.299655
 20
24.656048
 30
0.000000
 11
7.287230
 21
24.747343
 31
0.000000
  0
LINE
  8
1
 10
7.287230
 20
24.747343
 30
0.000000
 11
7.273750
 21
24.840294
 31
0.000000
  0
LINE
  8
1
 10
7.273750
 20
24.840294
 30
0.000000
 11
7.259189
 21
24.934893
 31
0.000000
  0
LINE
  8
1
 10
7.259189
 20
24.934893
 30
0.000000
 11
7.243515
 21
25.031128
 31
0.000000
  0
LINE
  8
1
 10
7.243515
 20
25.031128
 30
0.000000
 11
7.226699
 21
25.128986
 31
0.000000
  0
LINE
  8
1
 10
7.226699
 20
25.128986
 30
0.000000
 11
7.208711
 21
25.228451
 31
0.000000
  0
LINE
  8
1
 10
7.208711
 20
25.228451
 30
0.000000
 11
7.189522
 21
25.329515
 31
0.000000
  0
LINE
  8
1
 10
7.189522
 20
25.329515
 30
0.000000
 11
7.169102
 21
25.432163
 31
0.000000
  0
LINE
  8
1
 10
7.169102
 20
25.432163
 30
0.000000
 11
7.147424
 21
25.536381
 31
0.000000
  0
LINE
  8
1
 10
7.147424
 20
25.536381
 30
0.000000
 11
7.124458
 21
25.642153
 31
0.000000
  0
LINE
  8
1
 10
7.124458
 20
25.642153
 30
0.000000
 11
7.100174
 21
25.749464
 31
0.000000
  0
LINE
  8
1
 10
7.100174
 20
25.749464
 30
0.000000
 11
7.074544
 21
25.858301
 31
0.000000
  0
LINE
  8
1
 10
7.074544
 20
25.858301
 30
0.000000
 11
7.047541
 21
25.968651
 31
0.000000
  0
LINE
  8
1
 10
7.047541
 20
25.968651
 30
0.000000
 11
7.021542
 21
26.071018
 31
0.000000
  0
LINE
  8
1
 10
7.021542
 20
26.071018
 30
0.000000
 11
5.622053
 21
26.408192
 31
0.000000
  0
LINE
  8
1
 10
5.622053
 20
26.408192
 30
0.000000
 11
5.552286
 21
26.328896
 31
0.000000
  0
LINE
  8
1
 10
5.552286
 20
26.328896
 30
0.000000
 11
5.477992
 21
26.242952
 31
0.000000
  0
LINE
  8
1
 10
5.477992
 20
26.242952
 30
0.000000
 11
5.405608
 21
26.157730
 31
0.000000
  0
LINE
  8
1
 10
5.405608
 20
26.157730
 30
0.000000
 11
5.335117
 21
26.073252
 31
0.000000
  0
LINE
  8
1
 10
5.335117
 20
26.073252
 30
0.000000
 11
5.266500
 21
25.989544
 31
0.000000
  0
LINE
  8
1
 10
5.266500
 20
25.989544
 30
0.000000
 11
5.199738
 21
25.906633
 31
0.000000
  0
LINE
  8
1
 10
5.199738
 20
25.906633
 30
0.000000
 11
5.134811
 21
25.824549
 31
0.000000
  0
LINE
  8
1
 10
5.134811
 20
25.824549
 30
0.000000
 11
5.071702
 21
25.743313
 31
0.000000
  0
LINE
  8
1
 10
5.071702
 20
25.743313
 30
0.000000
 11
5.010388
 21
25.662952
 31
0.000000
  0
LINE
  8
1
 10
5.010388
 20
25.662952
 30
0.000000
 11
4.950851
 21
25.583490
 31
0.000000
  0
LINE
  8
1
 10
4.950851
 20
25.583490
 30
0.000000
 11
4.893070
 21
25.504951
 31
0.000000
  0
LINE
  8
1
 10
4.893070
 20
25.504951
 30
0.000000
 11
4.837024
 21
25.427364
 31
0.000000
  0
LINE
  8
1
 10
4.837024
 20
25.427364
 30
0.000000
 11
4.782693
 21
25.350750
 31
0.000000
  0
LINE
  8
1
 10
4.782693
 20
25.350750
 30
0.000000
 11
4.730053
 21
25.275131
 31
0.000000
  0
LINE
  8
1
 10
4.730053
 20
25.275131
 30
0.000000
 11
4.679086
 21
25.200535
 31
0.000000
  0
LINE
  8
1
 10
4.679086
 20
25.200535
 30
0.000000
 11
4.629767
 21
25.126980
 31
0.000000
  0
LINE
  8
1
 10
4.629767
 20
25.126980
 30
0.000000
 11
4.582075
 21
25.054495
 31
0.000000
  0
LINE
  8
1
 10
4.582075
 20
25.054495
 30
0.000000
 11
4.535988
 21
24.983099
 31
0.000000
  0
LINE
  8
1
 10
4.535988
 20
24.983099
 30
0.000000
 11
4.491483
 21
24.912815
 31
0.000000
  0
LINE
  8
1
 10
4.491483
 20
24.912815
 30
0.000000
 11
4.448537
 21
24.843664
 31
0.000000
  0
LINE
  8
1
 10
4.448537
 20
24.843664
 30
0.000000
 11
4.407126
 21
24.775669
 31
0.000000
  0
LINE
  8
1
 10
4.407126
 20
24.775669
 30
0.000000
 11
4.367227
 21
24.708853
 31
0.000000
  0
LINE
  8
1
 10
4.367227
 20
24.708853
 30
0.000000
 11
4.328817
 21
24.643232
 31
0.000000
  0
LINE
  8
1
 10
4.328817
 20
24.643232
 30
0.000000
 11
4.291871
 21
24.578835
 31
0.000000
  0
LINE
  8
1
 10
4.291871
 20
24.578835
 30
0.000000
 11
4.256365
 21
24.515675
 31
0.000000
  0
LINE
  8
1
 10
4.256365
 20
24.515675
 30
0.000000
 11
4.222275
 21
24.453773
 31
0.000000
  0
LINE
  8
1
 10
4.222275
 20
24.453773
 30
0.000000
 11
4.189575
 21
24.393152
 31
0.000000
  0
LINE
  8
1
 10
4.189575
 20
24.393152
 30
0.000000
 11
4.158242
 21
24.333830
 31
0.000000
  0
LINE
  8
1
 10
4.158242
 20
24.333830
 30
0.000000
 11
4.128249
 21
24.275827
 31
0.000000
  0
LINE
  8
1
 10
4.128249
 20
24.275827
 30
0.000000
 11
4.099570
 21
24.219158
 31
0.000000
  0
LINE
  8
1
 10
4.099570
 20
24.219158
 30
0.000000
 11
4.072182
 21
24.163847
 31
0.000000
  0
LINE
  8
1
 10
4.072182
 20
24.163847
 30
0.000000
 11
4.046057
 21
24.109907
 31
0.000000
  0
LINE
  8
1
 10
4.046057
 20
24.109907
 30
0.000000
 11
4.021169
 21
24.057360
 31
0.000000
  0
LINE
  8
1
 10
4.021169
 20
24.057360
 30
0.000000
 11
3.997493
 21
24.006220
 31
0.000000
  0
LINE
  8
1
 10
3.997493
 20
24.006220
 30
0.000000
 11
3.975001
 21
23.956505
 31
0.000000
  0
LINE
  8
1
 10
3.975001
 20
23.956505
 30
0.000000
 11
3.953666
 21
23.908234
 31
0.000000
  0
LINE
  8
1
 10
3.953666
 20
23.908234
 30
0.000000
 11
3.933464
 21
23.861420
 31
0.000000
  0
LINE
  8
1
 10
3.933464
 20
23.861420
 30
0.000000
 11
3.914364
 21
23.816080
 31
0.000000
  0
LINE
  8
1
 10
3.914364
 20
23.816080
 30
0.000000
 11
3.896341
 21
23.772228
 31
0.000000
  0
LINE
  8
1
 10
3.896341
 20
23.772228
 30
0.000000
 11
3.879367
 21
23.729883
 31
0.000000
  0
LINE
  8
1
 10
3.879367
 20
23.729883
 30
0.000000
 11
3.863414
 21
23.689058
 31
0.000000
  0
LINE
  8
1
 10
3.863414
 20
23.689058
 30
0.000000
 11
3.848455
 21
23.649769
 31
0.000000
  0
LINE
  8
1
 10
3.848455
 20
23.649769
 30
0.000000
 11
3.834460
 21
23.612024
 31
0.000000
  0
LINE
  8
1
 10
3.834460
 20
23.612024
 30
0.000000
 11
3.821404
 21
23.575846
 31
0.000000
  0
LINE
  8
1
 10
3.821404
 20
23.575846
 30
0.000000
 11
3.809255
 21
23.541239
 31
0.000000
  0
LINE
  8
1
 10
3.809255
 20
23.541239
 30
0.000000
 11
3.797988
 21
23.508223
 31
0.000000
  0
LINE
  8
1
 10
3.797988
 20
23.508223
 30
0.000000
 11
3.787571
 21
23.476809
 31
0.000000
  0
LINE
  8
1
 10
3.787571
 20
23.476809
 30
0.000000
 11
3.777977
 21
23.447006
 31
0.000000
  0
LINE
  8
1
 10
3.777977
 20
23.447006
 30
0.000000
 11
3.769177
 21
23.418829
 31
0.000000
  0
LINE
  8
1
 10
3.769177
 20
23.418829
 30
0.000000
 11
3.761142
 21
23.392288
 31
0.000000
  0
LINE
  8
1
 10
3.761142
 20
23.392288
 30
0.000000
 11
3.753842
 21
23.367397
 31
0.000000
  0
LINE
  8
1
 10
3.753842
 20
23.367397
 30
0.000000
 11
3.747248
 21
23.344162
 31
0.000000
  0
LINE
  8
1
 10
3.747248
 20
23.344162
 30
0.000000
 11
3.741330
 21
23.322596
 31
0.000000
  0
LINE
  8
1
 10
3.741330
 20
23.322596
 30
0.000000
 11
3.736058
 21
23.302710
 31
0.000000
  0
LINE
  8
1
 10
3.736058
 20
23.302710
 30
0.000000
 11
3.731404
 21
23.284510
 31
0.000000
  0
LINE
  8
1
 10
3.731404
 20
23.284510
 30
0.000000
 11
3.727337
 21
23.268007
 31
0.000000
  0
LINE
  8
1
 10
3.727337
 20
23.268007
 30
0.000000
 11
3.723826
 21
23.253214
 31
0.000000
  0
LINE
  8
1
 10
3.723826
 20
23.253214
 30
0.000000
 11
3.720843
 21
23.240131
 31
0.000000
  0
LINE
  8
1
 10
3.720843
 20
23.240131
 30
0.000000
 11
3.718356
 21
23.228771
 31
0.000000
  0
LINE
  8
1
 10
3.718356
 20
23.228771
 30
0.000000
 11
3.716336
 21
23.219141
 31
0.000000
  0
LINE
  8
1
 10
3.716336
 20
23.219141
 30
0.000000
 11
3.714751
 21
23.211248
 31
0.000000
  0
LINE
  8
1
 10
3.714751
 20
23.211248
 30
0.000000
 11
3.713572
 21
23.205097
 31
0.000000
  0
LINE
  8
1
 10
3.713572
 20
23.205097
 30
0.000000
 11
3.712768
 21
23.200699
 31
0.000000
  0
LINE
  8
1
 10
3.712768
 20
23.200699
 30
0.000000
 11
3.712161
 21
23.197172
 31
0.000000
  0
LINE
  8
1
 10
3.712161
 20
23.197172
 30
0.000000
 11
3.555360
 21
22.217323
 31
0.000000
  0
LINE
  8
1
 10
3.555360
 20
22.217323
 30
0.000000
 11
1.412786
 21
22.455601
 31
0.000000
  0
LINE
  8
1
 10
1.412786
 20
22.455601
 30
0.000000
 11
1.475094
 21
23.445959
 31
0.000000
  0
LINE
  8
1
 10
1.475094
 20
23.445959
 30
0.000000
 11
1.475277
 21
23.449532
 31
0.000000
  0
LINE
  8
1
 10
1.475277
 20
23.449532
 30
0.000000
 11
1.475459
 21
23.454000
 31
0.000000
  0
LINE
  8
1
 10
1.475459
 20
23.454000
 30
0.000000
 11
1.475660
 21
23.460260
 31
0.000000
  0
LINE
  8
1
 10
1.475660
 20
23.460260
 30
0.000000
 11
1.475848
 21
23.468307
 31
0.000000
  0
LINE
  8
1
 10
1.475848
 20
23.468307
 30
0.000000
 11
1.475993
 21
23.478146
 31
0.000000
  0
LINE
  8
1
 10
1.475993
 20
23.478146
 30
0.000000
 11
1.476063
 21
23.489775
 31
0.000000
  0
LINE
  8
1
 10
1.476063
 20
23.489775
 30
0.000000
 11
1.476026
 21
23.503193
 31
0.000000
  0
LINE
  8
1
 10
1.476026
 20
23.503193
 30
0.000000
 11
1.475852
 21
23.518398
 31
0.000000
  0
LINE
  8
1
 10
1.475852
 20
23.518398
 30
0.000000
 11
1.475510
 21
23.535391
 31
0.000000
  0
LINE
  8
1
 10
1.475510
 20
23.535391
 30
0.000000
 11
1.474968
 21
23.554169
 31
0.000000
  0
LINE
  8
1
 10
1.474968
 20
23.554169
 30
0.000000
 11
1.474195
 21
23.574728
 31
0.000000
  0
LINE
  8
1
 10
1.474195
 20
23.574728
 30
0.000000
 11
1.473160
 21
23.597067
 31
0.000000
  0
LINE
  8
1
 10
1.473160
 20
23.597067
 30
0.000000
 11
1.471831
 21
23.621181
 31
0.000000
  0
LINE
  8
1
 10
1.471831
 20
23.621181
 30
0.000000
 11
1.470178
 21
23.647070
 31
0.000000
  0
LINE
  8
1
 10
1.470178
 20
23.647070
 30
0.000000
 11
1.468170
 21
23.674726
 31
0.000000
  0
LINE
  8
1
 10
1.468170
 20
23.674726
 30
0.000000
 11
1.465776
 21
23.704149
 31
0.000000
  0
LINE
  8
1
 10
1.465776
 20
23.704149
 30
0.000000
 11
1.462964
 21
23.735331
 31
0.000000
  0
LINE
  8
1
 10
1.462964
 20
23.735331
 30
0.000000
 11
1.459705
 21
23.768267
 31
0.000000
  0
LINE
  8
1
 10
1.459705
 20
23.768267
 30
0.000000
 11
1.455966
 21
23.802952
 31
0.000000
  0
LINE
  8
1
 10
1.455966
 20
23.802952
 30
0.000000
 11
1.451717
 21
23.839380
 31
0.000000
  0
LINE
  8
1
 10
1.451717
 20
23.839380
 30
0.000000
 11
1.446929
 21
23.877544
 31
0.000000
  0
LINE
  8
1
 10
1.446929
 20
23.877544
 30
0.000000
 11
1.441569
 21
23.917440
 31
0.000000
  0
LINE
  8
1
 10
1.441569
 20
23.917440
 30
0.000000
 11
1.435607
 21
23.959057
 31
0.000000
  0
LINE
  8
1
 10
1.435607
 20
23.959057
 30
0.000000
 11
1.429014
 21
24.002390
 31
0.000000
  0
LINE
  8
1
 10
1.429014
 20
24.002390
 30
0.000000
 11
1.421758
 21
24.047430
 31
0.000000
  0
LINE
  8
1
 10
1.421758
 20
24.047430
 30
0.000000
 11
1.413810
 21
24.094170
 31
0.000000
  0
LINE
  8
1
 10
1.413810
 20
24.094170
 30
0.000000
 11
1.405138
 21
24.142597
 31
0.000000
  0
LINE
  8
1
 10
1.405138
 20
24.142597
 30
0.000000
 11
1.395714
 21
24.192707
 31
0.000000
  0
LINE
  8
1
 10
1.395714
 20
24.192707
 30
0.000000
 11
1.385507
 21
24.244486
 31
0.000000
  0
LINE
  8
1
 10
1.385507
 20
24.244486
 30
0.000000
 11
1.374487
 21
24.297928
 31
0.000000
  0
LINE
  8
1
 10
1.374487
 20
24.297928
 30
0.000000
 11
1.362625
 21
24.353020
 31
0.000000
  0
LINE
  8
1
 10
1.362625
 20
24.353020
 30
0.000000
 11
1.349890
 21
24.409752
 31
0.000000
  0
LINE
  8
1
 10
1.349890
 20
24.409752
 30
0.000000
 11
1.336254
 21
24.468113
 31
0.000000
  0
LINE
  8
1
 10
1.336254
 20
24.468113
 30
0.000000
 11
1.321687
 21
24.528090
 31
0.000000
  0
LINE
  8
1
 10
1.321687
 20
24.528090
 30
0.000000
 11
1.306160
 21
24.589674
 31
0.000000
  0
LINE
  8
1
 10
1.306160
 20
24.589674
 30
0.000000
 11
1.289643
 21
24.652849
 31
0.000000
  0
LINE
  8
1
 10
1.289643
 20
24.652849
 30
0.000000
 11
1.272109
 21
24.717607
 31
0.000000
  0
LINE
  8
1
 10
1.272109
 20
24.717607
 30
0.000000
 11
1.253527
 21
24.783932
 31
0.000000
  0
LINE
  8
1
 10
1.253527
 20
24.783932
 30
0.000000
 11
1.233870
 21
24.851809
 31
0.000000
  0
LINE
  8
1
 10
1.233870
 20
24.851809
 30
0.000000
 11
1.213108
 21
24.921228
 31
0.000000
  0
LINE
  8
1
 10
1.213108
 20
24.921228
 30
0.000000
 11
1.191214
 21
24.992170
 31
0.000000
  0
LINE
  8
1
 10
1.191214
 20
24.992170
 30
0.000000
 11
1.168159
 21
25.064625
 31
0.000000
  0
LINE
  8
1
 10
1.168159
 20
25.064625
 30
0.000000
 11
1.143915
 21
25.138575
 31
0.000000
  0
LINE
  8
1
 10
1.143915
 20
25.138575
 30
0.000000
 11
1.118455
 21
25.214008
 31
0.000000
  0
LINE
  8
1
 10
1.118455
 20
25.214008
 30
0.000000
 11
1.091751
 21
25.290903
 31
0.000000
  0
LINE
  8
1
 10
1.091751
 20
25.290903
 30
0.000000
 11
1.063775
 21
25.369247
 31
0.000000
  0
LINE
  8
1
 10
1.063775
 20
25.369247
 30
0.000000
 11
1.034500
 21
25.449026
 31
0.000000
  0
LINE
  8
1
 10
1.034500
 20
25.449026
 30
0.000000
 11
1.003899
 21
25.530218
 31
0.000000
  0
LINE
  8
1
 10
1.003899
 20
25.530218
 30
0.000000
 11
0.971946
 21
25.612810
 31
0.000000
  0
LINE
  8
1
 10
0.971946
 20
25.612810
 30
0.000000
 11
0.938612
 21
25.696781
 31
0.000000
  0
LINE
  8
1
 10
0.938612
 20
25.696781
 30
0.000000
 11
0.903873
 21
25.782118
 31
0.000000
  0
LINE
  8
1
 10
0.903873
 20
25.782118
 30
0.000000
 11
0.867702
 21
25.868797
 31
0.000000
  0
LINE
  8
1
 10
0.867702
 20
25.868797
 30
0.000000
 11
0.830072
 21
25.956804
 31
0.000000
  0
LINE
  8
1
 10
0.830072
 20
25.956804
 30
0.000000
 11
0.790958
 21
26.046118
 31
0.000000
  0
LINE
  8
1
 10
0.790958
 20
26.046118
 30
0.000000
 11
0.750334
 21
26.136719
 31
0.000000
  0
LINE
  8
1
 10
0.750334
 20
26.136719
 30
0.000000
 11
0.708174
 21
26.228586
 31
0.000000
  0
LINE
  8
1
 10
0.708174
 20
26.228586
 30
0.000000
 11
0.664455
 21
26.321703
 31
0.000000
  0
LINE
  8
1
 10
0.664455
 20
26.321703
 30
0.000000
 11
0.619149
 21
26.416046
 31
0.000000
  0
LINE
  8
1
 10
0.619149
 20
26.416046
 30
0.000000
 11
0.572235
 21
26.511600
 31
0.000000
  0
LINE
  8
1
 10
0.572235
 20
26.511600
 30
0.000000
 11
0.523685
 21
26.608337
 31
0.000000
  0
LINE
  8
1
 10
0.523685
 20
26.608337
 30
0.000000
 11
0.473477
 21
26.706238
 31
0.000000
  0
LINE
  8
1
 10
0.473477
 20
26.706238
 30
0.000000
 11
0.421586
 21
26.805283
 31
0.000000
  0
LINE
  8
1
 10
0.421586
 20
26.805283
 30
0.000000
 11
0.367988
 21
26.905449
 31
0.000000
  0
LINE
  8
1
 10
0.367988
 20
26.905449
 30
0.000000
 11
0.317348
 21
26.998135
 31
0.000000
  0
LINE
  8
1
 10
0.317348
 20
26.998135
 30
0.000000
 11
-1.122025
 21
26.976675
 31
0.000000
  0
LINE
  8
1
 10
-1.122025
 20
26.976675
 30
0.000000
 11
-1.169880
 21
26.882523
 31
0.000000
  0
LINE
  8
1
 10
-1.169880
 20
26.882523
 30
0.000000
 11
-1.220467
 21
26.780802
 31
0.000000
  0
LINE
  8
1
 10
-1.220467
 20
26.780802
 30
0.000000
 11
-1.269383
 21
26.680254
 31
0.000000
  0
LINE
  8
1
 10
-1.269383
 20
26.680254
 30
0.000000
 11
-1.316650
 21
26.580900
 31
0.000000
  0
LINE
  8
1
 10
-1.316650
 20
26.580900
 30
0.000000
 11
-1.362295
 21
26.482759
 31
0.000000
  0
LINE
  8
1
 10
-1.362295
 20
26.482759
 30
0.000000
 11
-1.406340
 21
26.385851
 31
0.000000
  0
LINE
  8
1
 10
-1.406340
 20
26.385851
 30
0.000000
 11
-1.448813
 21
26.290197
 31
0.000000
  0
LINE
  8
1
 10
-1.448813
 20
26.290197
 30
0.000000
 11
-1.489737
 21
26.195818
 31
0.000000
  0
LINE
  8
1
 10
-1.489737
 20
26.195818
 30
0.000000
 11
-1.529139
 21
26.102736
 31
0.000000
  0
LINE
  8
1
 10
-1.529139
 20
26.102736
 30
0.000000
 11
-1.567044
 21
26.010963
 31
0.000000
  0
LINE
  8
1
 10
-1.567044
 20
26.010963
 30
0.000000
 11
-1.603479
 21
25.920523
 31
0.000000
  0
LINE
  8
1
 10
-1.603479
 20
25.920523
 30
0.000000
 11
-1.638468
 21
25.831434
 31
0.000000
  0
LINE
  8
1
 10
-1.638468
 20
25.831434
 30
0.000000
 11
-1.672040
 21
25.743715
 31
0.000000
  0
LINE
  8
1
 10
-1.672040
 20
25.743715
 30
0.000000
 11
-1.704220
 21
25.657381
 31
0.000000
  0
LINE
  8
1
 10
-1.704220
 20
25.657381
 30
0.000000
 11
-1.735035
 21
25.572454
 31
0.000000
  0
LINE
  8
1
 10
-1.735035
 20
25.572454
 30
0.000000
 11
-1.764512
 21
25.488945
 31
0.000000
  0
LINE
  8
1
 10
-1.764512
 20
25.488945
 30
0.000000
 11
-1.792679
 21
25.406876
 31
0.000000
  0
LINE
  8
1
 10
-1.792679
 20
25.406876
 30
0.000000
 11
-1.819563
 21
25.326262
 31
0.000000
  0
LINE
  8
1
 10
-1.819563
 20
25.326262
 30
0.000000
 11
-1.845191
 21
25.247118
 31
0.000000
  0
LINE
  8
1
 10
-1.845191
 20
25.247118
 30
0.000000
 11
-1.869591
 21
25.169460
 31
0.000000
  0
LINE
  8
1
 10
-1.869591
 20
25.169460
 30
0.000000
 11
-1.892791
 21
25.093304
 31
0.000000
  0
LINE
  8
1
 10
-1.892791
 20
25.093304
 30
0.000000
 11
-1.914819
 21
25.018661
 31
0.000000
  0
LINE
  8
1
 10
-1.914819
 20
25.018661
 30
0.000000
 11
-1.935704
 21
24.945553
 31
0.000000
  0
LINE
  8
1
 10
-1.935704
 20
24.945553
 30
0.000000
 11
-1.955474
 21
24.873989
 31
0.000000
  0
LINE
  8
1
 10
-1.955474
 20
24.873989
 30
0.000000
 11
-1.974157
 21
24.803982
 31
0.000000
  0
LINE
  8
1
 10
-1.974157
 20
24.803982
 30
0.000000
 11
-1.991782
 21
24.735550
 31
0.000000
  0
LINE
  8
1
 10
-1.991782
 20
24.735550
 30
0.000000
 11
-2.008379
 21
24.668699
 31
0.000000
  0
LINE
  8
1
 10
-2.008379
 20
24.668699
 30
0.000000
 11
-2.023975
 21
24.603449
 31
0.000000
  0
LINE
  8
1
 10
-2.023975
 20
24.603449
 30
0.000000
 11
-2.038601
 21
24.539810
 31
0.000000
  0
LINE
  8
1
 10
-2.038601
 20
24.539810
 30
0.000000
 11
-2.052285
 21
24.477789
 31
0.000000
  0
LINE
  8
1
 10
-2.052285
 20
24.477789
 30
0.000000
 11
-2.065058
 21
24.417404
 31
0.000000
  0
LINE
  8
1
 10
-2.065058
 20
24.417404
 30
0.000000
 11
-2.076948
 21
24.358662
 31
0.000000
  0
LINE
  8
1
 10
-2.076948
 20
24.358662
 30
0.000000
 11
-2.087986
 21
24.301577
 31
0.000000
  0
LINE
  8
1
 10
-2.087986
 20
24.301577
 30
0.000000
 11
-2.098201
 21
24.246157
 31
0.000000
  0
LINE
  8
1
 10
-2.098201
 20
24.246157
 30
0.000000
 11
-2.107622
 21
24.192410
 31
0.000000
  0
LINE
  8
1
 10
-2.107622
 20
24.192410
 30
0.000000
 11
-2.116282
 21
24.140348
 31
0.000000
  0
LINE
  8
1
 10
-2.116282
 20
24.140348
 30
0.000000
 11
-2.124208
 21
24.089981
 31
0.000000
  0
LINE
  8
1
 10
-2.124208
 20
24.089981
 30
0.000000
 11
-2.131432
 21
24.041315
 31
0.000000
  0
LINE
  8
1
 10
-2.131432
 20
24.041315
 30
0.000000
 11
-2.137983
 21
23.994360
 31
0.000000
  0
LINE
  8
1
 10
-2.137983
 20
23.994360
 30
0.000000
 11
-2.143893
 21
23.949123
 31
0.000000
  0
LINE
  8
1
 10
-2.143893
 20
23.949123
 30
0.000000
 11
-2.149192
 21
23.905615
 31
0.000000
  0
LINE
  8
1
 10
-2.149192
 20
23.905615
 30
0.000000
 11
-2.153910
 21
23.863838
 31
0.000000
  0
LINE
  8
1
 10
-2.153910
 20
23.863838
 30
0.000000
 11
-2.158078
 21
23.823801
 31
0.000000
  0
LINE
  8
1
 10
-2.158078
 20
23.823801
 30
0.000000
 11
-2.161727
 21
23.785511
 31
0.000000
  0
LINE
  8
1
 10
-2.161727
 20
23.785511
 30
0.000000
 11
-2.164888
 21
23.748970
 31
0.000000
  0
LINE
  8
1
 10
-2.164888
 20
23.748970
 30
0.000000
 11
-2.167591
 21
23.714190
 31
0.000000
  0
LINE
  8
1
 10
-2.167591
 20
23.714190
 30
0.000000
 11
-2.169868
 21
23.681171
 31
0.000000
  0
LINE
  8
1
 10
-2.169868
 20
23.681171
 30
0.000000
 11
-2.171748
 21
23.649920
 31
0.000000
  0
LINE
  8
1
 10
-2.171748
 20
23.649920
 30
0.000000
 11
-2.173265
 21
23.620440
 31
0.000000
  0
LINE
  8
1
 10
-2.173265
 20
23.620440
 30
0.000000
 11
-2.174447
 21
23.592733
 31
0.000000
  0
LINE
  8
1
 10
-2.174447
 20
23.592733
 30
0.000000
 11
-2.175328
 21
23.566809
 31
0.000000
  0
LINE
  8
1
 10
-2.175328
 20
23.566809
 30
0.000000
 11
-2.175937
 21
23.542664
 31
0.000000
  0
LINE
  8
1
 10
-2.175937
 20
23.542664
 30
0.000000
 11
-2.176306
 21
23.520304
 31
0.000000
  0
LINE
  8
1
 10
-2.176306
 20
23.520304
 30
0.000000
 11
-2.176466
 21
23.499731
 31
0.000000
  0
LINE
  8
1
 10
-2.176466
 20
23.499731
 30
0.000000
 11
-2.176448
 21
23.480946
 31
0.000000
  0
LINE
  8
1
 10
-2.176448
 20
23.480946
 30
0.000000
 11
-2.176283
 21
23.463951
 31
0.000000
  0
LINE
  8
1
 10
-2.176283
 20
23.463951
 30
0.000000
 11
-2.176004
 21
23.448748
 31
0.000000
  0
LINE
  8
1
 10
-2.176004
 20
23.448748
 30
0.000000
 11
-2.175640
 21
23.435333
 31
0.000000
  0
LINE
  8
1
 10
-2.175640
 20
23.435333
 30
0.000000
 11
-2.175224
 21
23.423712
 31
0.000000
  0
LINE
  8
1
 10
-2.175224
 20
23.423712
 30
0.000000
 11
-2.174786
 21
23.413883
 31
0.000000
  0
LINE
  8
1
 10
-2.174786
 20
23.413883
 30
0.000000
 11
-2.174358
 21
23.405844
 31
0.000000
  0
LINE
  8
1
 10
-2.174358
 20
23.405844
 30
0.000000
 11
-2.173970
 21
23.399593
 31
0.000000
  0
LINE
  8
1
 10
-2.173970
 20
23.399593
 30
0.000000
 11
-2.173655
 21
23.395132
 31
0.000000
  0
LINE
  8
1
 10
-2.173655
 20
23.395132
 30
0.000000
 11
-2.173366
 21
23.391565
 31
0.000000
  0
LINE
  8
1
 10
-2.173366
 20
23.391565
 30
0.000000
 11
-2.081563
 21
22.403505
 31
0.000000
  0
LINE
  8
1
 10
-2.081563
 20
22.403505
 30
0.000000
 11
-4.216081
 21
22.101463
 31
0.000000
  0
LINE
  8
1
 10
-4.216081
 20
22.101463
 30
0.000000
 11
-4.402022
 21
23.076200
 31
0.000000
  0
LINE
  8
1
 10
-4.402022
 20
23.076200
 30
0.000000
 11
-4.402734
 21
23.079708
 31
0.000000
  0
LINE
  8
1
 10
-4.402734
 20
23.079708
 30
0.000000
 11
-4.403668
 21
23.084082
 31
0.000000
  0
LINE
  8
1
 10
-4.403668
 20
23.084082
 30
0.000000
 11
-4.405031
 21
23.090195
 31
0.000000
  0
LINE
  8
1
 10
-4.405031
 20
23.090195
 30
0.000000
 11
-4.406849
 21
23.098036
 31
0.000000
  0
LINE
  8
1
 10
-4.406849
 20
23.098036
 30
0.000000
 11
-4.409156
 21
23.107601
 31
0.000000
  0
LINE
  8
1
 10
-4.409156
 20
23.107601
 30
0.000000
 11
-4.411981
 21
23.118881
 31
0.000000
  0
LINE
  8
1
 10
-4.411981
 20
23.118881
 30
0.000000
 11
-4.415353
 21
23.131870
 31
0.000000
  0
LINE
  8
1
 10
-4.415353
 20
23.131870
 30
0.000000
 11
-4.419302
 21
23.146553
 31
0.000000
  0
LINE
  8
1
 10
-4.419302
 20
23.146553
 30
0.000000
 11
-4.423860
 21
23.162926
 31
0.000000
  0
LINE
  8
1
 10
-4.423860
 20
23.162926
 30
0.000000
 11
-4.429055
 21
23.180981
 31
0.000000
  0
LINE
  8
1
 10
-4.429055
 20
23.180981
 30
0.000000
 11
-4.434916
 21
23.200701
 31
0.000000
  0
LINE
  8
1
 10
-4.434916
 20
23.200701
 30
0.000000
 11
-4.441475
 21
23.222080
 31
0.000000
  0
LINE
  8
1
 10
-4.441475
 20
23.222080
 30
0.000000
 11
-4.448759
 21
23.245108
 31
0.000000
  0
LINE
  8
1
 10
-4.448759
 20
23.245108
 30
0.000000
 11
-4.456798
 21
23.269772
 31
0.000000
  0
LINE
  8
1
 10
-4.456798
 20
23.269772
 30
0.000000
 11
-4.465621
 21
23.296061
 31
0.000000
  0
LINE
  8
1
 10
-4.465621
 20
23.296061
 30
0.000000
 11
-4.475257
 21
23.323963
 31
0.000000
  0
LINE
  8
1
 10
-4.475257
 20
23.323963
 30
0.000000
 11
-4.485735
 21
23.353466
 31
0.000000
  0
LINE
  8
1
 10
-4.485735
 20
23.353466
 30
0.000000
 11
-4.497083
 21
23.384556
 31
0.000000
  0
LINE
  8
1
 10
-4.497083
 20
23.384556
 30
0.000000
 11
-4.509330
 21
23.417221
 31
0.000000
  0
LINE
  8
1
 10
-4.509330
 20
23.417221
 30
0.000000
 11
-4.522505
 21
23.451450
 31
0.000000
  0
LINE
  8
1
 10
-4.522505
 20
23.451450
 30
0.000000
 11
-4.536634
 21
23.487225
 31
0.000000
  0
LINE
  8
1
 10
-4.536634
 20
23.487225
 30
0.000000
 11
-4.551747
 21
23.524534
 31
0.000000
  0
LINE
  8
1
 10
-4.551747
 20
23.524534
 30
0.000000
 11
-4.567871
 21
23.563360
 31
0.000000
  0
LINE
  8
1
 10
-4.567871
 20
23.563360
 30
0.000000
 11
-4.585034
 21
23.603693
 31
0.000000
  0
LINE
  8
1
 10
-4.585034
 20
23.603693
 30
0.000000
 11
-4.603262
 21
23.645512
 31
0.000000
  0
LINE
  8
1
 10
-4.603262
 20
23.645512
 30
0.000000
 11
-4.622585
 21
23.688807
 31
0.000000
  0
LINE
  8
1
 10
-4.622585
 20
23.688807
 30
0.000000
 11
-4.643027
 21
23.733557
 31
0.000000
  0
LINE
  8
1
 10
-4.643027
 20
23.733557
 30
0.000000
 11
-4.664617
 21
23.779747
 31
0.000000
  0
LINE
  8
1
 10
-4.664617
 20
23.779747
 30
0.000000
 11
-4.687381
 21
23.827362
 31
0.000000
  0
LINE
  8
1
 10
-4.687381
 20
23.827362
 30
0.000000
 11
-4.711345
 21
23.876385
 31
0.000000
  0
LINE
  8
1
 10
-4.711345
 20
23.876385
 30
0.000000
 11
-4.736535
 21
23.926794
 31
0.000000
  0
LINE
  8
1
 10
-4.736535
 20
23.926794
 30
0.000000
 11
-4.762978
 21
23.978577
 31
0.000000
  0
LINE
  8
1
 10
-4.762978
 20
23.978577
 30
0.000000
 11
-4.790699
 21
24.031713
 31
0.000000
  0
LINE
  8
1
 10
-4.790699
 20
24.031713
 30
0.000000
 11
-4.819725
 21
24.086185
 31
0.000000
  0
LINE
  8
1
 10
-4.819725
 20
24.086185
 30
0.000000
 11
-4.850080
 21
24.141973
 31
0.000000
  0
LINE
  8
1
 10
-4.850080
 20
24.141973
 30
0.000000
 11
-4.881788
 21
24.199057
 31
0.000000
  0
LINE
  8
1
 10
-4.881788
 20
24.199057
 30
0.000000
 11
-4.914876
 21
24.257418
 31
0.000000
  0
LINE
  8
1
 10
-4.914876
 20
24.257418
 30
0.000000
 11
-4.949369
 21
24.317038
 31
0.000000
  0
LINE
  8
1
 10
-4.949369
 20
24.317038
 30
0.000000
 11
-4.985289
 21
24.377895
 31
0.000000
  0
LINE
  8
1
 10
-4.985289
 20
24.377895
 30
0.000000
 11
-5.022662
 21
24.439968
 31
0.000000
  0
LINE
  8
1
 10
-5.022662
 20
24.439968
 30
0.000000
 11
-5.061511
 21
24.503237
 31
0.000000
  0
LINE
  8
1
 10
-5.061511
 20
24.503237
 30
0.000000
 11
-5.101861
 21
24.567682
 31
0.000000
  0
LINE
  8
1
 10
-5.101861
 20
24.567682
 30
0.000000
 11
-5.143733
 21
24.633280
 31
0.000000
  0
LINE
  8
1
 10
-5.143733
 20
24.633280
 30
0.000000
 11
-5.187152
 21
24.700010
 31
0.000000
  0
LINE
  8
1
 10
-5.187152
 20
24.700010
 30
0.000000
 11
-5.232141
 21
24.767851
 31
0.000000
  0
LINE
  8
1
 10
-5.232141
 20
24.767851
 30
0.000000
 11
-5.278722
 21
24.836777
 31
0.000000
  0
LINE
  8
1
 10
-5.278722
 20
24.836777
 30
0.000000
 11
-5.326917
 21
24.906767
 31
0.000000
  0
LINE
  8
1
 10
-5.326917
 20
24.906767
 30
0.000000
 11
-5.376748
 21
24.977798
 31
0.000000
  0
LINE
  8
1
 10
-5.376748
 20
24.977798
 30
0.000000
 11
-5.428237
 21
25.049850
 31
0.000000
  0
LINE
  8
1
 10
-5.428237
 20
25.049850
 30
0.000000
 11
-5.481406
 21
25.122894
 31
0.000000
  0
LINE
  8
1
 10
-5.481406
 20
25.122894
 30
0.000000
 11
-5.536276
 21
25.196909
 31
0.000000
  0
LINE
  8
1
 10
-5.536276
 20
25.196909
 30
0.000000
 11
-5.592868
 21
25.271870
 31
0.000000
  0
LINE
  8
1
 10
-5.592868
 20
25.271870
 30
0.000000
 11
-5.651202
 21
25.347754
 31
0.000000
  0
LINE
  8
1
 10
-5.651202
 20
25.347754
 30
0.000000
 11
-5.711298
 21
25.424534
 31
0.000000
  0
LINE
  8
1
 10
-5.711298
 20
25.424534
 30
0.000000
 11
-5.773178
 21
25.502186
 31
0.000000
  0
LINE
  8
1
 10
-5.773178
 20
25.502186
 30
0.000000
 11
-5.836859
 21
25.580683
 31
0.000000
  0
LINE
  8
1
 10
-5.836859
 20
25.580683
 30
0.000000
 11
-5.902363
 21
25.660002
 31
0.000000
  0
LINE
  8
1
 10
-5.902363
 20
25.660002
 30
0.000000
 11
-5.969707
 21
25.740114
 31
0.000000
  0
LINE
  8
1
 10
-5.969707
 20
25.740114
 30
0.000000
 11
-6.038911
 21
25.820997
 31
0.000000
  0
LINE
  8
1
 10
-6.038911
 20
25.820997
 30
0.000000
 11
-6.109993
 21
25.902622
 31
0.000000
  0
LINE
  8
1
 10
-6.109993
 20
25.902622
 30
0.000000
 11
-6.182971
 21
25.984961
 31
0.000000
  0
LINE
  8
1
 10
-6.182971
 20
25.984961
 30
0.000000
 11
-6.257863
 21
26.067989
 31
0.000000
  0
LINE
  8
1
 10
-6.257863
 20
26.067989
 30
0.000000
 11
-6.334687
 21
26.151680
 31
0.000000
  0
LINE
  8
1
 10
-6.334687
 20
26.151680
 30
0.000000
 11
-6.406786
 21
26.228859
 31
0.000000
  0
LINE
  8
1
 10
-6.406786
 20
26.228859
 30
0.000000
 11
-7.795601
 21
25.850117
 31
0.000000
  0
LINE
  8
1
 10
-7.795601
 20
25.850117
 30
0.000000
 11
-7.818538
 21
25.747021
 31
0.000000
  0
LINE
  8
1
 10
-7.818538
 20
25.747021
 30
0.000000
 11
-7.842239
 21
25.635916
 31
0.000000
  0
LINE
  8
1
 10
-7.842239
 20
25.635916
 30
0.000000
 11
-7.864613
 21
25.526361
 31
0.000000
  0
LINE
  8
1
 10
-7.864613
 20
25.526361
 30
0.000000
 11
-7.885687
 21
25.418375
 31
0.000000
  0
LINE
  8
1
 10
-7.885687
 20
25.418375
 30
0.000000
 11
-7.905490
 21
25.311966
 31
0.000000
  0
LINE
  8
1
 10
-7.905490
 20
25.311966
 30
0.000000
 11
-7.924052
 21
25.207148
 31
0.000000
  0
LINE
  8
1
 10
-7.924052
 20
25.207148
 30
0.000000
 11
-7.941402
 21
25.103937
 31
0.000000
  0
LINE
  8
1
 10
-7.941402
 20
25.103937
 30
0.000000
 11
-7.957570
 21
25.002346
 31
0.000000
  0
LINE
  8
1
 10
-7.957570
 20
25.002346
 30
0.000000
 11
-7.972585
 21
24.902388
 31
0.000000
  0
LINE
  8
1
 10
-7.972585
 20
24.902388
 30
0.000000
 11
-7.986477
 21
24.804071
 31
0.000000
  0
LINE
  8
1
 10
-7.986477
 20
24.804071
 30
0.000000
 11
-7.999275
 21
24.707413
 31
0.000000
  0
LINE
  8
1
 10
-7.999275
 20
24.707413
 30
0.000000
 11
-8.011009
 21
24.612421
 31
0.000000
  0
LINE
  8
1
 10
-8.011009
 20
24.612421
 30
0.000000
 11
-8.021712
 21
24.519110
 31
0.000000
  0
LINE
  8
1
 10
-8.021712
 20
24.519110
 30
0.000000
 11
-8.031410
 21
24.427485
 31
0.000000
  0
LINE
  8
1
 10
-8.031410
 20
24.427485
 30
0.000000
 11
-8.040137
 21
24.337563
 31
0.000000
  0
LINE
  8
1
 10
-8.040137
 20
24.337563
 30
0.000000
 11
-8.047920
 21
24.249346
 31
0.000000
  0
LINE
  8
1
 10
-8.047920
 20
24.249346
 30
0.000000
 11
-8.054792
 21
24.162851
 31
0.000000
  0
LINE
  8
1
 10
-8.054792
 20
24.162851
 30
0.000000
 11
-8.060783
 21
24.078083
 31
0.000000
  0
LINE
  8
1
 10
-8.060783
 20
24.078083
 30
0.000000
 11
-8.065925
 21
23.995052
 31
0.000000
  0
LINE
  8
1
 10
-8.065925
 20
23.995052
 30
0.000000
 11
-8.070245
 21
23.913767
 31
0.000000
  0
LINE
  8
1
 10
-8.070245
 20
23.913767
 30
0.000000
 11
-8.073776
 21
23.834232
 31
0.000000
  0
LINE
  8
1
 10
-8.073776
 20
23.834232
 30
0.000000
 11
-8.076550
 21
23.756458
 31
0.000000
  0
LINE
  8
1
 10
-8.076550
 20
23.756458
 30
0.000000
 11
-8.078598
 21
23.680452
 31
0.000000
  0
LINE
  8
1
 10
-8.078598
 20
23.680452
 30
0.000000
 11
-8.079949
 21
23.606220
 31
0.000000
  0
LINE
  8
1
 10
-8.079949
 20
23.606220
 30
0.000000
 11
-8.080635
 21
23.533766
 31
0.000000
  0
LINE
  8
1
 10
-8.080635
 20
23.533766
 30
0.000000
 11
-8.080688
 21
23.463100
 31
0.000000
  0
LINE
  8
1
 10
-8.080688
 20
23.463100
 30
0.000000
 11
-8.080138
 21
23.394224
 31
0.000000
  0
LINE
  8
1
 10
-8.080138
 20
23.394224
 30
0.000000
 11
-8.079018
 21
23.327145
 31
0.000000
  0
LINE
  8
1
 10
-8.079018
 20
23.327145
 30
0.000000
 11
-8.077357
 21
23.261866
 31
0.000000
  0
LINE
  8
1
 10
-8.077357
 20
23.261866
 30
0.000000
 11
-8.075189
 21
23.198391
 31
0.000000
  0
LINE
  8
1
 10
-8.075189
 20
23.198391
 30
0.000000
 11
-8.072542
 21
23.136726
 31
0.000000
  0
LINE
  8
1
 10
-8.072542
 20
23.136726
 30
0.000000
 11
-8.069450
 21
23.076874
 31
0.000000
  0
LINE
  8
1
 10
-8.069450
 20
23.076874
 30
0.000000
 11
-8.065945
 21
23.018835
 31
0.000000
  0
LINE
  8
1
 10
-8.065945
 20
23.018835
 30
0.000000
 11
-8.062056
 21
22.962616
 31
0.000000
  0
LINE
  8
1
 10
-8.062056
 20
22.962616
 30
0.000000
 11
-8.057816
 21
22.908215
 31
0.000000
  0
LINE
  8
1
 10
-8.057816
 20
22.908215
 30
0.000000
 11
-8.053255
 21
22.855637
 31
0.000000
  0
LINE
  8
1
 10
-8.053255
 20
22.855637
 30
0.000000
 11
-8.048407
 21
22.804880
 31
0.000000
  0
LINE
  8
1
 10
-8.048407
 20
22.804880
 30
0.000000
 11
-8.043302
 21
22.755947
 31
0.000000
  0
LINE
  8
1
 10
-8.043302
 20
22.755947
 30
0.000000
 11
-8.037970
 21
22.708838
 31
0.000000
  0
LINE
  8
1
 10
-8.037970
 20
22.708838
 30
0.000000
 11
-8.032444
 21
22.663553
 31
0.000000
  0
LINE
  8
1
 10
-8.032444
 20
22.663553
 30
0.000000
 11
-8.026756
 21
22.620092
 31
0.000000
  0
LINE
  8
1
 10
-8.026756
 20
22.620092
 30
0.000000
 11
-8.020937
 21
22.578455
 31
0.000000
  0
LINE
  8
1
 10
-8.020937
 20
22.578455
 30
0.000000
 11
-8.015017
 21
22.538639
 31
0.000000
  0
LINE
  8
1
 10
-8.015017
 20
22.538639
 30
0.000000
 11
-8.009029
 21
22.500645
 31
0.000000
  0
LINE
  8
1
 10
-8.009029
 20
22.500645
 30
0.000000
 11
-8.003003
 21
22.464466
 31
0.000000
  0
LINE
  8
1
 10
-8.003003
 20
22.464466
 30
0.000000
 11
-7.996972
 21
22.430105
 31
0.000000
  0
LINE
  8
1
 10
-7.996972
 20
22.430105
 30
0.000000
 11
-7.990965
 21
22.397560
 31
0.000000
  0
LINE
  8
1
 10
-7.990965
 20
22.397560
 30
0.000000
 11
-7.985015
 21
22.366821
 31
0.000000
  0
LINE
  8
1
 10
-7.985015
 20
22.366821
 30
0.000000
 11
-7.979152
 21
22.337891
 31
0.000000
  0
LINE
  8
1
 10
-7.979152
 20
22.337891
 30
0.000000
 11
-7.973408
 21
22.310760
 31
0.000000
  0
LINE
  8
1
 10
-7.973408
 20
22.310760
 30
0.000000
 11
-7.967813
 21
22.285431
 31
0.000000
  0
LINE
  8
1
 10
-7.967813
 20
22.285431
 30
0.000000
 11
-7.962399
 21
22.261894
 31
0.000000
  0
LINE
  8
1
 10
-7.962399
 20
22.261894
 30
0.000000
 11
-7.957195
 21
22.240145
 31
0.000000
  0
LINE
  8
1
 10
-7.957195
 20
22.240145
 30
0.000000
 11
-7.952234
 21
22.220179
 31
0.000000
  0
LINE
  8
1
 10
-7.952234
 20
22.220179
 30
0.000000
 11
-7.947545
 21
22.201986
 31
0.000000
  0
LINE
  8
1
 10
-7.947545
 20
22.201986
 30
0.000000
 11
-7.943159
 21
22.185566
 31
0.000000
  0
LINE
  8
1
 10
-7.943159
 20
22.185566
 30
0.000000
 11
-7.939107
 21
22.170912
 31
0.000000
  0
LINE
  8
1
 10
-7.939107
 20
22.170912
 30
0.000000
 11
-7.935420
 21
22.158009
 31
0.000000
  0
LINE
  8
1
 10
-7.935420
 20
22.158009
 30
0.000000
 11
-7.932126
 21
22.146856
 31
0.000000
  0
LINE
  8
1
 10
-7.932126
 20
22.146856
 30
0.000000
 11
-7.929257
 21
22.137444
 31
0.000000
  0
LINE
  8
1
 10
-7.929257
 20
22.137444
 30
0.000000
 11
-7.926844
 21
22.129765
 31
0.000000
  0
LINE
  8
1
 10
-7.926844
 20
22.129765
 30
0.000000
 11
-7.924914
 21
22.123808
 31
0.000000
  0
LINE
  8
1
 10
-7.924914
 20
22.123808
 30
0.000000
 11
-7.923499
 21
22.119564
 31
0.000000
  0
LINE
  8
1
 10
-7.923499
 20
22.119564
 30
0.000000
 11
-7.922332
 21
22.116182
 31
0.000000
  0
LINE
  8
1
 10
-7.922332
 20
22.116182
 30
0.000000
 11
-7.587692
 21
21.181995
 31
0.000000
  0
LINE
  8
1
 10
-7.587692
 20
21.181995
 30
0.000000
 11
-9.580036
 21
20.358608
 31
0.000000
  0
LINE
  8
1
 10
-9.580036
 20
20.358608
 30
0.000000
 11
-10.002543
 21
21.256481
 31
0.000000
  0
LINE
  8
1
 10
-10.002543
 20
21.256481
 30
0.000000
 11
-10.004105
 21
21.259701
 31
0.000000
  0
LINE
  8
1
 10
-10.004105
 20
21.259701
 30
0.000000
 11
-10.006098
 21
21.263704
 31
0.000000
  0
LINE
  8
1
 10
-10.006098
 20
21.263704
 30
0.000000
 11
-10.008937
 21
21.269287
 31
0.000000
  0
LINE
  8
1
 10
-10.008937
 20
21.269287
 30
0.000000
 11
-10.012649
 21
21.276428
 31
0.000000
  0
LINE
  8
1
 10
-10.012649
 20
21.276428
 30
0.000000
 11
-10.017262
 21
21.285120
 31
0.000000
  0
LINE
  8
1
 10
-10.017262
 20
21.285120
 30
0.000000
 11
-10.022803
 21
21.295345
 31
0.000000
  0
LINE
  8
1
 10
-10.022803
 20
21.295345
 30
0.000000
 11
-10.029299
 21
21.307085
 31
0.000000
  0
LINE
  8
1
 10
-10.029299
 20
21.307085
 30
0.000000
 11
-10.036777
 21
21.320326
 31
0.000000
  0
LINE
  8
1
 10
-10.036777
 20
21.320326
 30
0.000000
 11
-10.045262
 21
21.335051
 31
0.000000
  0
LINE
  8
1
 10
-10.045262
 20
21.335051
 30
0.000000
 11
-10.054784
 21
21.351246
 31
0.000000
  0
LINE
  8
1
 10
-10.054784
 20
21.351246
 30
0.000000
 11
-10.065366
 21
21.368889
 31
0.000000
  0
LINE
  8
1
 10
-10.065366
 20
21.368889
 30
0.000000
 11
-10.077035
 21
21.387966
 31
0.000000
  0
LINE
  8
1
 10
-10.077035
 20
21.387966
 30
0.000000
 11
-10.089817
 21
21.408459
 31
0.000000
  0
LINE
  8
1
 10
-10.089817
 20
21.408459
 30
0.000000
 11
-10.103737
 21
21.430347
 31
0.000000
  0
LINE
  8
1
 10
-10.103737
 20
21.430347
 30
0.000000
 11
-10.118820
 21
21.453617
 31
0.000000
  0
LINE
  8
1
 10
-10.118820
 20
21.453617
 30
0.000000
 11
-10.135093
 21
21.478245
 31
0.000000
  0
LINE
  8
1
 10
-10.135093
 20
21.478245
 30
0.000000
 11
-10.152579
 21
21.504217
 31
0.000000
  0
LINE
  8
1
 10
-10.152579
 20
21.504217
 30
0.000000
 11
-10.171302
 21
21.531507
 31
0.000000
  0
LINE
  8
1
 10
-10.171302
 20
21.531507
 30
0.000000
 11
-10.191288
 21
21.560101
 31
0.000000
  0
LINE
  8
1
 10
-10.191288
 20
21.560101
 30
0.000000
 11
-10.212561
 21
21.589977
 31
0.000000
  0
LINE
  8
1
 10
-10.212561
 20
21.589977
 30
0.000000
 11
-10.235144
 21
21.621115
 31
0.000000
  0
LINE
  8
1
 10
-10.235144
 20
21.621115
 30
0.000000
 11
-10.259060
 21
21.653494
 31
0.000000
  0
LINE
  8
1
 10
-10.259060
 20
21.653494
 30
0.000000
 11
-10.284333
 21
21.687090
 31
0.000000
  0
LINE
  8
1
 10
-10.284333
 20
21.687090
 30
0.000000
 11
-10.310987
 21
21.721888
 31
0.000000
  0
LINE
  8
1
 10
-10.310987
 20
21.721888
 30
0.000000
 11
-10.339043
 21
21.757860
 31
0.000000
  0
LINE
  8
1
 10
-10.339043
 20
21.757860
 30
0.000000
 11
-10.368526
 21
21.794989
 31
0.000000
  0
LINE
  8
1
 10
-10.368526
 20
21.794989
 30
0.000000
 11
-10.399455
 21
21.833250
 31
0.000000
  0
LINE
  8
1
 10
-10.399455
 20
21.833250
 30
0.000000
 11
-10.431853
 21
21.872620
 31
0.000000
  0
LINE
  8
1
 10
-10.431853
 20
21.872620
 30
0.000000
 11
-10.465743
 21
21.913076
 31
0.000000
  0
LINE
  8
1
 10
-10.465743
 20
21.913076
 30
0.000000
 11
-10.501145
 21
21.954599
 31
0.000000
  0
LINE
  8
1
 10
-10.501145
 20
21.954599
 30
0.000000
 11
-10.538081
 21
21.997162
 31
0.000000
  0
LINE
  8
1
 10
-10.538081
 20
21.997162
 30
0.000000
 11
-10.576571
 21
22.040741
 31
0.000000
  0
LINE
  8
1
 10
-10.576571
 20
22.040741
 30
0.000000
 11
-10.616636
 21
22.085316
 31
0.000000
  0
LINE
  8
1
 10
-10.616636
 20
22.085316
 30
0.000000
 11
-10.658296
 21
22.130856
 31
0.000000
  0
LINE
  8
1
 10
-10.658296
 20
22.130856
 30
0.000000
 11
-10.701571
 21
22.177343
 31
0.000000
  0
LINE
  8
1
 10
-10.701571
 20
22.177343
 30
0.000000
 11
-10.746479
 21
22.224747
 31
0.000000
  0
LINE
  8
1
 10
-10.746479
 20
22.224747
 30
0.000000
 11
-10.793042
 21
22.273046
 31
0.000000
  0
LINE
  8
1
 10
-10.793042
 20
22.273046
 30
0.000000
 11
-10.841277
 21
22.322216
 31
0.000000
  0
LINE
  8
1
 10
-10.841277
 20
22.322216
 30
0.000000
 11
-10.891204
 21
22.372227
 31
0.000000
  0
LINE
  8
1
 10
-10.891204
 20
22.372227
 30
0.000000
 11
-10.942840
 21
22.423056
 31
0.000000
  0
LINE
  8
1
 10
-10.942840
 20
22.423056
 30
0.000000
 11
-10.996202
 21
22.474676
 31
0.000000
  0
LINE
  8
1
 10
-10.996202
 20
22.474676
 30
0.000000
 11
-11.051311
 21
22.527061
 31
0.000000
  0
LINE
  8
1
 10
-11.051311
 20
22.527061
 30
0.000000
 11
-11.108182
 21
22.580185
 31
0.000000
  0
LINE
  8
1
 10
-11.108182
 20
22.580185
 30
0.000000
 11
-11.166832
 21
22.634022
 31
0.000000
  0
LINE
  8
1
 10
-11.166832
 20
22.634022
 30
0.000000
 11
-11.227279
 21
22.688541
 31
0.000000
  0
LINE
  8
1
 10
-11.227279
 20
22.688541
 30
0.000000
 11
-11.289536
 21
22.743717
 31
0.000000
  0
LINE
  8
1
 10
-11.289536
 20
22.743717
 30
0.000000
 11
-11.353623
 21
22.799524
 31
0.000000
  0
LINE
  8
1
 10
-11.353623
 20
22.799524
 30
0.000000
 11
-11.419554
 21
22.855932
 31
0.000000
  0
LINE
  8
1
 10
-11.419554
 20
22.855932
 30
0.000000
 11
-11.487345
 21
22.912914
 31
0.000000
  0
LINE
  8
1
 10
-11.487345
 20
22.912914
 30
0.000000
 11
-11.557008
 21
22.970440
 31
0.000000
  0
LINE
  8
1
 10
-11.557008
 20
22.970440
 30
0.000000
 11
-11.628562
 21
23.028486
 31
0.000000
  0
LINE
  8
1
 10
-11.628562
 20
23.028486
 30
0.000000
 11
-11.702017
 21
23.087017
 31
0.000000
  0
LINE
  8
1
 10
-11.702017
 20
23.087017
 30
0.000000
 11
-11.777390
 21
23.146009
 31
0.000000
  0
LINE
  8
1
 10
-11.777390
 20
23.146009
 30
0.000000
 11
-11.854692
 21
23.205433
 31
0.000000
  0
LINE
  8
1
 10
-11.854692
 20
23.205433
 30
0.000000
 11
-11.933939
 21
23.265255
 31
0.000000
  0
LINE
  8
1
 10
-11.933939
 20
23.265255
 30
0.000000
 11
-12.015141
 21
23.325449
 31
0.000000
  0
LINE
  8
1
 10
-12.015141
 20
23.325449
 30
0.000000
 11
-12.098313
 21
23.385986
 31
0.000000
  0
LINE
  8
1
 10
-12.098313
 20
23.385986
 30
0.000000
 11
-12.183464
 21
23.446835
 31
0.000000
  0
LINE
  8
1
 10
-12.183464
 20
23.446835
 30
0.000000
 11
-12.270609
 21
23.507967
 31
0.000000
  0
LINE
  8
1
 10
-12.270609
 20
23.507967
 30
0.000000
 11
-12.359757
 21
23.569349
 31
0.000000
  0
LINE
  8
1
 10
-12.359757
 20
23.569349
 30
0.000000
 11
-12.450919
 21
23.630953
 31
0.000000
  0
LINE
  8
1
 10
-12.450919
 20
23.630953
 30
0.000000
 11
-12.544106
 21
23.692747
 31
0.000000
  0
LINE
  8
1
 10
-12.544106
 20
23.692747
 30
0.000000
 11
-12.639330
 21
23.754704
 31
0.000000
  0
LINE
  8
1
 10
-12.639330
 20
23.754704
 30
0.000000
 11
-12.728358
 21
23.811527
 31
0.000000
  0
LINE
  8
1
 10
-12.728358
 20
23.811527
 30
0.000000
 11
-13.979352
 21
23.099300
 31
0.000000
  0
LINE
  8
1
 10
-13.979352
 20
23.099300
 30
0.000000
 11
-13.975929
 21
22.993738
 31
0.000000
  0
LINE
  8
1
 10
-13.975929
 20
22.993738
 30
0.000000
 11
-13.971255
 21
22.880230
 31
0.000000
  0
LINE
  8
1
 10
-13.971255
 20
22.880230
 30
0.000000
 11
-13.965681
 21
22.768555
 31
0.000000
  0
LINE
  8
1
 10
-13.965681
 20
22.768555
 30
0.000000
 11
-13.959238
 21
22.658718
 31
0.000000
  0
LINE
  8
1
 10
-13.959238
 20
22.658718
 30
0.000000
 11
-13.951956
 21
22.550726
 31
0.000000
  0
LINE
  8
1
 10
-13.951956
 20
22.550726
 30
0.000000
 11
-13.943868
 21
22.444586
 31
0.000000
  0
LINE
  8
1
 10
-13.943868
 20
22.444586
 30
0.000000
 11
-13.935006
 21
22.340303
 31
0.000000
  0
LINE
  8
1
 10
-13.935006
 20
22.340303
 30
0.000000
 11
-13.925400
 21
22.237883
 31
0.000000
  0
LINE
  8
1
 10
-13.925400
 20
22.237883
 30
0.000000
 11
-13.915085
 21
22.137331
 31
0.000000
  0
LINE
  8
1
 10
-13.915085
 20
22.137331
 30
0.000000
 11
-13.904090
 21
22.038651
 31
0.000000
  0
LINE
  8
1
 10
-13.904090
 20
22.038651
 30
0.000000
 11
-13.892448
 21
21.941845
 31
0.000000
  0
LINE
  8
1
 10
-13.892448
 20
21.941845
 30
0.000000
 11
-13.880191
 21
21.846918
 31
0.000000
  0
LINE
  8
1
 10
-13.880191
 20
21.846918
 30
0.000000
 11
-13.867352
 21
21.753878
 31
0.000000
  0
LINE
  8
1
 10
-13.867352
 20
21.753878
 30
0.000000
 11
-13.853959
 21
21.662720
 31
0.000000
  0
LINE
  8
1
 10
-13.853959
 20
21.662720
 30
0.000000
 11
-13.840048
 21
21.573450
 31
0.000000
  0
LINE
  8
1
 10
-13.840048
 20
21.573450
 30
0.000000
 11
-13.825649
 21
21.486071
 31
0.000000
  0
LINE
  8
1
 10
-13.825649
 20
21.486071
 30
0.000000
 11
-13.810795
 21
21.400583
 31
0.000000
  0
LINE
  8
1
 10
-13.810795
 20
21.400583
 30
0.000000
 11
-13.795517
 21
21.316990
 31
0.000000
  0
LINE
  8
1
 10
-13.795517
 20
21.316990
 30
0.000000
 11
-13.779847
 21
21.235289
 31
0.000000
  0
LINE
  8
1
 10
-13.779847
 20
21.235289
 30
0.000000
 11
-13.763817
 21
21.155483
 31
0.000000
  0
LINE
  8
1
 10
-13.763817
 20
21.155483
 30
0.000000
 11
-13.747458
 21
21.077568
 31
0.000000
  0
LINE
  8
1
 10
-13.747458
 20
21.077568
 30
0.000000
 11
-13.730803
 21
21.001547
 31
0.000000
  0
LINE
  8
1
 10
-13.730803
 20
21.001547
 30
0.000000
 11
-13.713883
 21
20.927420
 31
0.000000
  0
LINE
  8
1
 10
-13.713883
 20
20.927420
 30
0.000000
 11
-13.696733
 21
20.855185
 31
0.000000
  0
LINE
  8
1
 10
-13.696733
 20
20.855185
 30
0.000000
 11
-13.679379
 21
20.784836
 31
0.000000
  0
LINE
  8
1
 10
-13.679379
 20
20.784836
 30
0.000000
 11
-13.661856
 21
20.716377
 31
0.000000
  0
LINE
  8
1
 10
-13.661856
 20
20.716377
 30
0.000000
 11
-13.644194
 21
20.649801
 31
0.000000
  0
LINE
  8
1
 10
-13.644194
 20
20.649801
 30
0.000000
 11
-13.626427
 21
20.585108
 31
0.000000
  0
LINE
  8
1
 10
-13.626427
 20
20.585108
 30
0.000000
 11
-13.608584
 21
20.522293
 31
0.000000
  0
LINE
  8
1
 10
-13.608584
 20
20.522293
 30
0.000000
 11
-13.590698
 21
20.461353
 31
0.000000
  0
LINE
  8
1
 10
-13.590698
 20
20.461353
 30
0.000000
 11
-13.572801
 21
20.402285
 31
0.000000
  0
LINE
  8
1
 10
-13.572801
 20
20.402285
 30
0.000000
 11
-13.554920
 21
20.345079
 31
0.000000
  0
LINE
  8
1
 10
-13.554920
 20
20.345079
 30
0.000000
 11
-13.537091
 21
20.289738
 31
0.000000
  0
LINE
  8
1
 10
-13.537091
 20
20.289738
 30
0.000000
 11
-13.519343
 21
20.236252
 31
0.000000
  0
LINE
  8
1
 10
-13.519343
 20
20.236252
 30
0.000000
 11
-13.501707
 21
20.184612
 31
0.000000
  0
LINE
  8
1
 10
-13.501707
 20
20.184612
 30
0.000000
 11
-13.484215
 21
20.134821
 31
0.000000
  0
LINE
  8
1
 10
-13.484215
 20
20.134821
 30
0.000000
 11
-13.466896
 21
20.086864
 31
0.000000
  0
LINE
  8
1
 10
-13.466896
 20
20.086864
 30
0.000000
 11
-13.449781
 21
20.040739
 31
0.000000
  0
LINE
  8
1
 10
-13.449781
 20
20.040739
 30
0.000000
 11
-13.432901
 21
19.996435
 31
0.000000
  0
LINE
  8
1
 10
-13.432901
 20
19.996435
 30
0.000000
 11
-13.416288
 21
19.953947
 31
0.000000
  0
LINE
  8
1
 10
-13.416288
 20
19.953947
 30
0.000000
 11
-13.399970
 21
19.913267
 31
0.000000
  0
LINE
  8
1
 10
-13.399970
 20
19.913267
 30
0.000000
 11
-13.383979
 21
19.874384
 31
0.000000
  0
LINE
  8
1
 10
-13.383979
 20
19.874384
 30
0.000000
 11
-13.368343
 21
19.837292
 31
0.000000
  0
LINE
  8
1
 10
-13.368343
 20
19.837292
 30
0.000000
 11
-13.353095
 21
19.801979
 31
0.000000
  0
LINE
  8
1
 10
-13.353095
 20
19.801979
 30
0.000000
 11
-13.338261
 21
19.768436
 31
0.000000
  0
LINE
  8
1
 10
-13.338261
 20
19.768436
 30
0.000000
 11
-13.323874
 21
19.736656
 31
0.000000
  0
LINE
  8
1
 10
-13.323874
 20
19.736656
 30
0.000000
 11
-13.309962
 21
19.706625
 31
0.000000
  0
LINE
  8
1
 10
-13.309962
 20
19.706625
 30
0.000000
 11
-13.296555
 21
19.678333
 31
0.000000
  0
LINE
  8
1
 10
-13.296555
 20
19.678333
 30
0.000000
 11
-13.283681
 21
19.651770
 31
0.000000
  0
LINE
  8
1
 10
-13.283681
 20
19.651770
 30
0.000000
 11
-13.271370
 21
19.626921
 31
0.000000
  0
LINE
  8
1
 10
-13.271370
 20
19.626921
 30
0.000000
 11
-13.259652
 21
19.603779
 31
0.000000
  0
LINE
  8
1
 10
-13.259652
 20
19.603779
 30
0.000000
 11
-13.248554
 21
19.582327
 31
0.000000
  0
LINE
  8
1
 10
-13.248554
 20
19.582327
 30
0.000000
 11
-13.238106
 21
19.562555
 31
0.000000
  0
LINE
  8
1
 10
-13.238106
 20
19.562555
 30
0.000000
 11
-13.228334
 21
19.544449
 31
0.000000
  0
LINE
  8
1
 10
-13.228334
 20
19.544449
 30
0.000000
 11
-13.219269
 21
19.527996
 31
0.000000
  0
LINE
  8
1
 10
-13.219269
 20
19.527996
 30
0.000000
 11
-13.210938
 21
19.513182
 31
0.000000
  0
LINE
  8
1
 10
-13.210938
 20
19.513182
 30
0.000000
 11
-13.203368
 21
19.499994
 31
0.000000
  0
LINE
  8
1
 10
-13.203368
 20
19.499994
 30
0.000000
 11
-13.196588
 21
19.488415
 31
0.000000
  0
LINE
  8
1
 10
-13.196588
 20
19.488415
 30
0.000000
 11
-13.190624
 21
19.478432
 31
0.000000
  0
LINE
  8
1
 10
-13.190624
 20
19.478432
 30
0.000000
 11
-13.185505
 21
19.470030
 31
0.000000
  0
LINE
  8
1
 10
-13.185505
 20
19.470030
 30
0.000000
 11
-13.181257
 21
19.463192
 31
0.000000
  0
LINE
  8
1
 10
-13.181257
 20
19.463192
 30
0.000000
 11
-13.177906
 21
19.457901
 31
0.000000
  0
LINE
  8
1
 10
-13.177906
 20
19.457901
 30
0.000000
 11
-13.175481
 21
19.454144
 31
0.000000
  0
LINE
  8
1
 10
-13.175481
 20
19.454144
 30
0.000000
 11
-13.173510
 21
19.451157
 31
0.000000
  0
LINE
  8
1
 10
-13.173510
 20
19.451157
 30
0.000000
 11
-12.617061
 21
18.629539
 31
0.000000
  0
LINE
  8
1
 10
-12.617061
 20
18.629539
 30
0.000000
 11
-14.342041
 21
17.336546
 31
0.000000
  0
LINE
  8
1
 10
-14.342041
 20
17.336546
 30
0.000000
 11
-14.974566
 21
18.101139
 31
0.000000
  0
LINE
  8
1
 10
-14.974566
 20
18.101139
 30
0.000000
 11
-14.976880
 21
18.103868
 31
0.000000
  0
LINE
  8
1
 10
-14.976880
 20
18.103868
 30
0.000000
 11
-14.979806
 21
18.107250
 31
0.000000
  0
LINE
  8
1
 10
-14.979806
 20
18.107250
 30
0.000000
 11
-14.983944
 21
18.111952
 31
0.000000
  0
LINE
  8
1
 10
-14.983944
 20
18.111952
 30
0.000000
 11
-14.989316
 21
18.117947
 31
0.000000
  0
LINE
  8
1
 10
-14.989316
 20
18.117947
 30
0.000000
 11
-14.995946
 21
18.125217
 31
0.000000
  0
LINE
  8
1
 10
-14.995946
 20
18.125217
 30
0.000000
 11
-15.003855
 21
18.133743
 31
0.000000
  0
LINE
  8
1
 10
-15.003855
 20
18.133743
 30
0.000000
 11
-15.013067
 21
18.143499
 31
0.000000
  0
LINE
  8
1
 10
-15.013067
 20
18.143499
 30
0.000000
 11
-15.023602
 21
18.154463
 31
0.000000
  0
LINE
  8
1
 10
-15.023602
 20
18.154463
 30
0.000000
 11
-15.035483
 21
18.166616
 31
0.000000
  0
LINE
  8
1
 10
-15.035483
 20
18.166616
 30
0.000000
 11
-15.048734
 21
18.179934
 31
0.000000
  0
LINE
  8
1
 10
-15.048734
 20
18.179934
 30
0.000000
 11
-15.063371
 21
18.194391
 31
0.000000
  0
LINE
  8
1
 10
-15.063371
 20
18.194391
 30
0.000000
 11
-15.079417
 21
18.209967
 31
0.000000
  0
LINE
  8
1
 10
-15.079417
 20
18.209967
 30
0.000000
 11
-15.096894
 21
18.226637
 31
0.000000
  0
LINE
  8
1
 10
-15.096894
 20
18.226637
 30
0.000000
 11
-15.115820
 21
18.244377
 31
0.000000
  0
LINE
  8
1
 10
-15.115820
 20
18.244377
 30
0.000000
 11
-15.136217
 21
18.263165
 31
0.000000
  0
LINE
  8
1
 10
-15.136217
 20
18.263165
 30
0.000000
 11
-15.158103
 21
18.282972
 31
0.000000
  0
LINE
  8
1
 10
-15.158103
 20
18.282972
 30
0.000000
 11
-15.181499
 21
18.303780
 31
0.000000
  0
LINE
  8
1
 10
-15.181499
 20
18.303780
 30
0.000000
 11
-15.206420
 21
18.325556
 31
0.000000
  0
LINE
  8
1
 10
-15.206420
 20
18.325556
 30
0.000000
 11
-15.232889
 21
18.348280
 31
0.000000
  0
LINE
  8
1
 10
-15.232889
 20
18.348280
 30
0.000000
 11
-15.260923
 21
18.371929
 31
0.000000
  0
LINE
  8
1
 10
-15.260923
 20
18.371929
 30
0.000000
 11
-15.290540
 21
18.396471
 31
0.000000
  0
LINE
  8
1
 10
-15.290540
 20
18.396471
 30
0.000000
 11
-15.321757
 21
18.421885
 31
0.000000
  0
LINE
  8
1
 10
-15.321757
 20
18.421885
 30
0.000000
 11
-15.354592
 21
18.448141
 31
0.000000
  0
LINE
  8
1
 10
-15.354592
 20
18.448141
 30
0.000000
 11
-15.389062
 21
18.475216
 31
0.000000
  0
LINE
  8
1
 10
-15.389062
 20
18.475216
 30
0.000000
 11
-15.425182
 21
18.503080
 31
0.000000
  0
LINE
  8
1
 10
-15.425182
 20
18.503080
 30
0.000000
 11
-15.462972
 21
18.531712
 31
0.000000
  0
LINE
  8
1
 10
-15.462972
 20
18.531712
 30
0.000000
 11
-15.502445
 21
18.561079
 31
0.000000
  0
LINE
  8
1
 10
-15.502445
 20
18.561079
 30
0.000000
 11
-15.543616
 21
18.591154
 31
0.000000
  0
LINE
  8
1
 10
-15.543616
 20
18.591154
 30
0.000000
 11
-15.586503
 21
18.621914
 31
0.000000
  0
LINE
  8
1
 10
-15.586503
 20
18.621914
 30
0.000000
 11
-15.631120
 21
18.653328
 31
0.000000
  0
LINE
  8
1
 10
-15.631120
 20
18.653328
 30
0.000000
 11
-15.677479
 21
18.685366
 31
0.000000
  0
LINE
  8
1
 10
-15.677479
 20
18.685366
 30
0.000000
 11
-15.725598
 21
18.718004
 31
0.000000
  0
LINE
  8
1
 10
-15.725598
 20
18.718004
 30
0.000000
 11
-15.775490
 21
18.751215
 31
0.000000
  0
LINE
  8
1
 10
-15.775490
 20
18.751215
 30
0.000000
 11
-15.827166
 21
18.784964
 31
0.000000
  0
LINE
  8
1
 10
-15.827166
 20
18.784964
 30
0.000000
 11
-15.880642
 21
18.819229
 31
0.000000
  0
LINE
  8
1
 10
-15.880642
 20
18.819229
 30
0.000000
 11
-15.935928
 21
18.853975
 31
0.000000
  0
LINE
  8
1
 10
-15.935928
 20
18.853975
 30
0.000000
 11
-15.993040
 21
18.889177
 31
0.000000
  0
LINE
  8
1
 10
-15.993040
 20
18.889177
 30
0.000000
 11
-16.051989
 21
18.924807
 31
0.000000
  0
LINE
  8
1
 10
-16.051989
 20
18.924807
 30
0.000000
 11
-16.112783
 21
18.960831
 31
0.000000
  0
LINE
  8
1
 10
-16.112783
 20
18.960831
 30
0.000000
 11
-16.175438
 21
18.997221
 31
0.000000
  0
LINE
  8
1
 10
-16.175438
 20
18.997221
 30
0.000000
 11
-16.239962
 21
19.033949
 31
0.000000
  0
LINE
  8
1
 10
-16.239962
 20
19.033949
 30
0.000000
 11
-16.306366
 21
19.070984
 31
0.000000
  0
LINE
  8
1
 10
-16.306366
 20
19.070984
 30
0.000000
 11
-16.374662
 21
19.108295
 31
0.000000
  0
LINE
  8
1
 10
-16.374662
 20
19.108295
 30
0.000000
 11
-16.444859
 21
19.145855
 31
0.000000
  0
LINE
  8
1
 10
-16.444859
 20
19.145855
 30
0.000000
 11
-16.516964
 21
19.183628
 31
0.000000
  0
LINE
  8
1
 10
-16.516964
 20
19.183628
 30
0.000000
 11
-16.590988
 21
19.221588
 31
0.000000
  0
LINE
  8
1
 10
-16.590988
 20
19.221588
 30
0.000000
 11
-16.666939
 21
19.259705
 31
0.000000
  0
LINE
  8
1
 10
-16.666939
 20
19.259705
 30
0.000000
 11
-16.744827
 21
19.297943
 31
0.000000
  0
LINE
  8
1
 10
-16.744827
 20
19.297943
 30
0.000000
 11
-16.824659
 21
19.336277
 31
0.000000
  0
LINE
  8
1
 10
-16.824659
 20
19.336277
 30
0.000000
 11
-16.906439
 21
19.374672
 31
0.000000
  0
LINE
  8
1
 10
-16.906439
 20
19.374672
 30
0.000000
 11
-16.990181
 21
19.413097
 31
0.000000
  0
LINE
  8
1
 10
-16.990181
 20
19.413097
 30
0.000000
 11
-17.075884
 21
19.451523
 31
0.000000
  0
LINE
  8
1
 10
-17.075884
 20
19.451523
 30
0.000000
 11
-17.163559
 21
19.489918
 31
0.000000
  0
LINE
  8
1
 10
-17.163559
 20
19.489918
 30
0.000000
 11
-17.253212
 21
19.528250
 31
0.000000
  0
LINE
  8
1
 10
-17.253212
 20
19.528250
 30
0.000000
 11
-17.344847
 21
19.566484
 31
0.000000
  0
LINE
  8
1
 10
-17.344847
 20
19.566484
 30
0.000000
 11
-17.438467
 21
19.604593
 31
0.000000
  0
LINE
  8
1
 10
-17.438467
 20
19.604593
 30
0.000000
 11
-17.534081
 21
19.642546
 31
0.000000
  0
LINE
  8
1
 10
-17.534081
 20
19.642546
 30
0.000000
 11
-17.631689
 21
19.680305
 31
0.000000
  0
LINE
  8
1
 10
-17.631689
 20
19.680305
 30
0.000000
 11
-17.731298
 21
19.717844
 31
0.000000
  0
LINE
  8
1
 10
-17.731298
 20
19.717844
 30
0.000000
 11
-17.832912
 21
19.755129
 31
0.000000
  0
LINE
  8
1
 10
-17.832912
 20
19.755129
 30
0.000000
 11
-17.936529
 21
19.792126
 31
0.000000
  0
LINE
  8
1
 10
-17.936529
 20
19.792126
 30
0.000000
 11
-18.042156
 21
19.828804
 31
0.000000
  0
LINE
  8
1
 10
-18.042156
 20
19.828804
 30
0.000000
 11
-18.149796
 21
19.865131
 31
0.000000
  0
LINE
  8
1
 10
-18.149796
 20
19.865131
 30
0.000000
 11
-18.250160
 21
19.898031
 31
0.000000
  0
LINE
  8
1
 10
-18.250160
 20
19.898031
 30
0.000000
 11
-19.284727
 21
18.897070
 31
0.000000
  0
LINE
  8
1
 10
-19.284727
 20
18.897070
 30
0.000000
 11
-19.255159
 21
18.795675
 31
0.000000
  0
LINE
  8
1
 10
-19.255159
 20
18.795675
 30
0.000000
 11
-19.222404
 21
18.686895
 31
0.000000
  0
LINE
  8
1
 10
-19.222404
 20
18.686895
 30
0.000000
 11
-19.189232
 21
18.580114
 31
0.000000
  0
LINE
  8
1
 10
-19.189232
 20
18.580114
 30
0.000000
 11
-19.155676
 21
18.475332
 31
0.000000
  0
LINE
  8
1
 10
-19.155676
 20
18.475332
 30
0.000000
 11
-19.121767
 21
18.372543
 31
0.000000
  0
LINE
  8
1
 10
-19.121767
 20
18.372543
 30
0.000000
 11
-19.087536
 21
18.271749
 31
0.000000
  0
LINE
  8
1
 10
-19.087536
 20
18.271749
 30
0.000000
 11
-19.053019
 21
18.172947
 31
0.000000
  0
LINE
  8
1
 10
-19.053019
 20
18.172947
 30
0.000000
 11
-19.018244
 21
18.076134
 31
0.000000
  0
LINE
  8
1
 10
-19.018244
 20
18.076134
 30
0.000000
 11
-18.983246
 21
17.981306
 31
0.000000
  0
LINE
  8
1
 10
-18.983246
 20
17.981306
 30
0.000000
 11
-18.948055
 21
17.888458
 31
0.000000
  0
LINE
  8
1
 10
-18.948055
 20
17.888458
 30
0.000000
 11
-18.912704
 21
17.797590
 31
0.000000
  0
LINE
  8
1
 10
-18.912704
 20
17.797590
 30
0.000000
 11
-18.877226
 21
17.708694
 31
0.000000
  0
LINE
  8
1
 10
-18.877226
 20
17.708694
 30
0.000000
 11
-18.841652
 21
17.621769
 31
0.000000
  0
LINE
  8
1
 10
-18.841652
 20
17.621769
 30
0.000000
 11
-18.806009
 21
17.536806
 31
0.000000
  0
LINE
  8
1
 10
-18.806009
 20
17.536806
 30
0.000000
 11
-18.770336
 21
17.453802
 31
0.000000
  0
LINE
  8
1
 10
-18.770336
 20
17.453802
 30
0.000000
 11
-18.734659
 21
17.372747
 31
0.000000
  0
LINE
  8
1
 10
-18.734659
 20
17.372747
 30
0.000000
 11
-18.699011
 21
17.293640
 31
0.000000
  0
LINE
  8
1
 10
-18.699011
 20
17.293640
 30
0.000000
 11
-18.663424
 21
17.216473
 31
0.000000
  0
LINE
  8
1
 10
-18.663424
 20
17.216473
 30
0.000000
 11
-18.627928
 21
17.141235
 31
0.000000
  0
LINE
  8
1
 10
-18.627928
 20
17.141235
 30
0.000000
 11
-18.592554
 21
17.067923
 31
0.000000
  0
LINE
  8
1
 10
-18.592554
 20
17.067923
 30
0.000000
 11
-18.557333
 21
16.996525
 31
0.000000
  0
LINE
  8
1
 10
-18.557333
 20
16.996525
 30
0.000000
 11
-18.522297
 21
16.927034
 31
0.000000
  0
LINE
  8
1
 10
-18.522297
 20
16.927034
 30
0.000000
 11
-18.487474
 21
16.859444
 31
0.000000
  0
LINE
  8
1
 10
-18.487474
 20
16.859444
 30
0.000000
 11
-18.452896
 21
16.793743
 31
0.000000
  0
LINE
  8
1
 10
-18.452896
 20
16.793743
 30
0.000000
 11
-18.418594
 21
16.729919
 31
0.000000
  0
LINE
  8
1
 10
-18.418594
 20
16.729919
 30
0.000000
 11
-18.384596
 21
16.667969
 31
0.000000
  0
LINE
  8
1
 10
-18.384596
 20
16.667969
 30
0.000000
 11
-18.350933
 21
16.607878
 31
0.000000
  0
LINE
  8
1
 10
-18.350933
 20
16.607878
 30
0.000000
 11
-18.317635
 21
16.549635
 31
0.000000
  0
LINE
  8
1
 10
-18.317635
 20
16.549635
 30
0.000000
 11
-18.284733
 21
16.493231
 31
0.000000
  0
LINE
  8
1
 10
-18.284733
 20
16.493231
 30
0.000000
 11
-18.252253
 21
16.438654
 31
0.000000
  0
LINE
  8
1
 10
-18.252253
 20
16.438654
 30
0.000000
 11
-18.220226
 21
16.385891
 31
0.000000
  0
LINE
  8
1
 10
-18.220226
 20
16.385891
 30
0.000000
 11
-18.188683
 21
16.334930
 31
0.000000
  0
LINE
  8
1
 10
-18.188683
 20
16.334930
 30
0.000000
 11
-18.157650
 21
16.285761
 31
0.000000
  0
LINE
  8
1
 10
-18.157650
 20
16.285761
 30
0.000000
 11
-18.127159
 21
16.238369
 31
0.000000
  0
LINE
  8
1
 10
-18.127159
 20
16.238369
 30
0.000000
 11
-18.097235
 21
16.192739
 31
0.000000
  0
LINE
  8
1
 10
-18.097235
 20
16.192739
 30
0.000000
 11
-18.067909
 21
16.148861
 31
0.000000
  0
LINE
  8
1
 10
-18.067909
 20
16.148861
 30
0.000000
 11
-18.039207
 21
16.106718
 31
0.000000
  0
LINE
  8
1
 10
-18.039207
 20
16.106718
 30
0.000000
 11
-18.011160
 21
16.066298
 31
0.000000
  0
LINE
  8
1
 10
-18.011160
 20
16.066298
 30
0.000000
 11
-17.983793
 21
16.027584
 31
0.000000
  0
LINE
  8
1
 10
-17.983793
 20
16.027584
 30
0.000000
 11
-17.957134
 21
15.990562
 31
0.000000
  0
LINE
  8
1
 10
-17.957134
 20
15.990562
 30
0.000000
 11
-17.931213
 21
15.955218
 31
0.000000
  0
LINE
  8
1
 10
-17.931213
 20
15.955218
 30
0.000000
 11
-17.906055
 21
15.921535
 31
0.000000
  0
LINE
  8
1
 10
-17.906055
 20
15.921535
 30
0.000000
 11
-17.881685
 21
15.889495
 31
0.000000
  0
LINE
  8
1
 10
-17.881685
 20
15.889495
 30
0.000000
 11
-17.858133
 21
15.859085
 31
0.000000
  0
LINE
  8
1
 10
-17.858133
 20
15.859085
 30
0.000000
 11
-17.835424
 21
15.830285
 31
0.000000
  0
LINE
  8
1
 10
-17.835424
 20
15.830285
 30
0.000000
 11
-17.813585
 21
15.803081
 31
0.000000
  0
LINE
  8
1
 10
-17.813585
 20
15.803081
 30
0.000000
 11
-17.792643
 21
15.777453
 31
0.000000
  0
LINE
  8
1
 10
-17.792643
 20
15.777453
 30
0.000000
 11
-17.772621
 21
15.753384
 31
0.000000
  0
LINE
  8
1
 10
-17.772621
 20
15.753384
 30
0.000000
 11
-17.753546
 21
15.730856
 31
0.000000
  0
LINE
  8
1
 10
-17.753546
 20
15.730856
 30
0.000000
 11
-17.735441
 21
15.709849
 31
0.000000
  0
LINE
  8
1
 10
-17.735441
 20
15.709849
 30
0.000000
 11
-17.718336
 21
15.690349
 31
0.000000
  0
LINE
  8
1
 10
-17.718336
 20
15.690349
 30
0.000000
 11
-17.702253
 21
15.672331
 31
0.000000
  0
LINE
  8
1
 10
-17.702253
 20
15.672331
 30
0.000000
 11
-17.687214
 21
15.655779
 31
0.000000
  0
LINE
  8
1
 10
-17.687214
 20
15.655779
 30
0.000000
 11
-17.673248
 21
15.640673
 31
0.000000
  0
LINE
  8
1
 10
-17.673248
 20
15.640673
 30
0.000000
 11
-17.660376
 21
15.626990
 31
0.000000
  0
LINE
  8
1
 10
-17.660376
 20
15.626990
 30
0.000000
 11
-17.648623
 21
15.614714
 31
0.000000
  0
LINE
  8
1
 10
-17.648623
 20
15.614714
 30
0.000000
 11
-17.638012
 21
15.603823
 31
0.000000
  0
LINE
  8
1
 10
-17.638012
 20
15.603823
 30
0.000000
 11
-17.628565
 21
15.594294
 31
0.000000
  0
LINE
  8
1
 10
-17.628565
 20
15.594294
 30
0.000000
 11
-17.620304
 21
15.586107
 31
0.000000
  0
LINE
  8
1
 10
-17.620304
 20
15.586107
 30
0.000000
 11
-17.613256
 21
15.579241
 31
0.000000
  0
LINE
  8
1
 10
-17.613256
 20
15.579241
 30
0.000000
 11
-17.607443
 21
15.573674
 31
0.000000
  0
LINE
  8
1
 10
-17.607443
 20
15.573674
 30
0.000000
 11
-17.602880
 21
15.569383
 31
0.000000
  0
LINE
  8
1
 10
-17.602880
 20
15.569383
 30
0.000000
 11
-17.599598
 21
15.566347
 31
0.000000
  0
LINE
  8
1
 10
-17.599598
 20
15.566347
 30
0.000000
 11
-17.596945
 21
15.563945
 31
0.000000
  0
LINE
  8
1
 10
-17.596945
 20
15.563945
 30
0.000000
 11
-16.853649
 21
14.906524
 31
0.000000
  0
LINE
  8
1
 10
-16.853649
 20
14.906524
 30
0.000000
 11
-18.202883
 21
13.225168
 31
0.000000
  0
LINE
  8
1
 10
-18.202883
 20
13.225168
 30
0.000000
 11
-19.005682
 21
13.808436
 31
0.000000
  0
LINE
  8
1
 10
-19.005682
 20
13.808436
 30
0.000000
 11
-19.008602
 21
13.810506
 31
0.000000
  0
LINE
  8
1
 10
-19.008602
 20
13.810506
 30
0.000000
 11
-19.012278
 21
13.813054
 31
0.000000
  0
LINE
  8
1
 10
-19.012278
 20
13.813054
 30
0.000000
 11
-19.017454
 21
13.816577
 31
0.000000
  0
LINE
  8
1
 10
-19.017454
 20
13.816577
 30
0.000000
 11
-19.024149
 21
13.821049
 31
0.000000
  0
LINE
  8
1
 10
-19.024149
 20
13.821049
 30
0.000000
 11
-19.032377
 21
13.826443
 31
0.000000
  0
LINE
  8
1
 10
-19.032377
 20
13.826443
 30
0.000000
 11
-19.042158
 21
13.832732
 31
0.000000
  0
LINE
  8
1
 10
-19.042158
 20
13.832732
 30
0.000000
 11
-19.053509
 21
13.839891
 31
0.000000
  0
LINE
  8
1
 10
-19.053509
 20
13.839891
 30
0.000000
 11
-19.066439
 21
13.847892
 31
0.000000
  0
LINE
  8
1
 10
-19.066439
 20
13.847892
 30
0.000000
 11
-19.080969
 21
13.856708
 31
0.000000
  0
LINE
  8
1
 10
-19.080969
 20
13.856708
 30
0.000000
 11
-19.097115
 21
13.866312
 31
0.000000
  0
LINE
  8
1
 10
-19.097115
 20
13.866312
 30
0.000000
 11
-19.114887
 21
13.876675
 31
0.000000
  0
LINE
  8
1
 10
-19.114887
 20
13.876675
 30
0.000000
 11
-19.134304
 21
13.887771
 31
0.000000
  0
LINE
  8
1
 10
-19.134304
 20
13.887771
 30
0.000000
 11
-19.155376
 21
13.899570
 31
0.000000
  0
LINE
  8
1
 10
-19.155376
 20
13.899570
 30
0.000000
 11
-19.178120
 21
13.912046
 31
0.000000
  0
LINE
  8
1
 10
-19.178120
 20
13.912046
 30
0.000000
 11
-19.202549
 21
13.925171
 31
0.000000
  0
LINE
  8
1
 10
-19.202549
 20
13.925171
 30
0.000000
 11
-19.228672
 21
13.938913
 31
0.000000
  0
LINE
  8
1
 10
-19.228672
 20
13.938913
 30
0.000000
 11
-19.256508
 21
13.953249
 31
0.000000
  0
LINE
  8
1
 10
-19.256508
 20
13.953249
 30
0.000000
 11
-19.286062
 21
13.968143
 31
0.000000
  0
LINE
  8
1
 10
-19.286062
 20
13.968143
 30
0.000000
 11
-19.317350
 21
13.983572
 31
0.000000
  0
LINE
  8
1
 10
-19.317350
 20
13.983572
 30
0.000000
 11
-19.350386
 21
13.999505
 31
0.000000
  0
LINE
  8
1
 10
-19.350386
 20
13.999505
 30
0.000000
 11
-19.385176
 21
14.015911
 31
0.000000
  0
LINE
  8
1
 10
-19.385176
 20
14.015911
 30
0.000000
 11
-19.421732
 21
14.032763
 31
0.000000
  0
LINE
  8
1
 10
-19.421732
 20
14.032763
 30
0.000000
 11
-19.460064
 21
14.050029
 31
0.000000
  0
LINE
  8
1
 10
-19.460064
 20
14.050029
 30
0.000000
 11
-19.500185
 21
14.067680
 31
0.000000
  0
LINE
  8
1
 10
-19.500185
 20
14.067680
 30
0.000000
 11
-19.542101
 21
14.085688
 31
0.000000
  0
LINE
  8
1
 10
-19.542101
 20
14.085688
 30
0.000000
 11
-19.585823
 21
14.104021
 31
0.000000
  0
LINE
  8
1
 10
-19.585823
 20
14.104021
 30
0.000000
 11
-19.631359
 21
14.122649
 31
0.000000
  0
LINE
  8
1
 10
-19.631359
 20
14.122649
 30
0.000000
 11
-19.678717
 21
14.141541
 31
0.000000
  0
LINE
  8
1
 10
-19.678717
 20
14.141541
 30
0.000000
 11
-19.727905
 21
14.160667
 31
0.000000
  0
LINE
  8
1
 10
-19.727905
 20
14.160667
 30
0.000000
 11
-19.778933
 21
14.179999
 31
0.000000
  0
LINE
  8
1
 10
-19.778933
 20
14.179999
 30
0.000000
 11
-19.831802
 21
14.199503
 31
0.000000
  0
LINE
  8
1
 10
-19.831802
 20
14.199503
 30
0.000000
 11
-19.886526
 21
14.219149
 31
0.000000
  0
LINE
  8
1
 10
-19.886526
 20
14.219149
 30
0.000000
 11
-19.943110
 21
14.238908
 31
0.000000
  0
LINE
  8
1
 10
-19.943110
 20
14.238908
 30
0.000000
 11
-20.001556
 21
14.258746
 31
0.000000
  0
LINE
  8
1
 10
-20.001556
 20
14.258746
 30
0.000000
 11
-20.061872
 21
14.278634
 31
0.000000
  0
LINE
  8
1
 10
-20.061872
 20
14.278634
 30
0.000000
 11
-20.124063
 21
14.298540
 31
0.000000
  0
LINE
  8
1
 10
-20.124063
 20
14.298540
 30
0.000000
 11
-20.188135
 21
14.318434
 31
0.000000
  0
LINE
  8
1
 10
-20.188135
 20
14.318434
 30
0.000000
 11
-20.254091
 21
14.338283
 31
0.000000
  0
LINE
  8
1
 10
-20.254091
 20
14.338283
 30
0.000000
 11
-20.321936
 21
14.358056
 31
0.000000
  0
LINE
  8
1
 10
-20.321936
 20
14.358056
 30
0.000000
 11
-20.391672
 21
14.377723
 31
0.000000
  0
LINE
  8
1
 10
-20.391672
 20
14.377723
 30
0.000000
 11
-20.463303
 21
14.397249
 31
0.000000
  0
LINE
  8
1
 10
-20.463303
 20
14.397249
 30
0.000000
 11
-20.536831
 21
14.416607
 31
0.000000
  0
LINE
  8
1
 10
-20.536831
 20
14.416607
 30
0.000000
 11
-20.612261
 21
14.435762
 31
0.000000
  0
LINE
  8
1
 10
-20.612261
 20
14.435762
 30
0.000000
 11
-20.689592
 21
14.454684
 31
0.000000
  0
LINE
  8
1
 10
-20.689592
 20
14.454684
 30
0.000000
 11
-20.768827
 21
14.473340
 31
0.000000
  0
LINE
  8
1
 10
-20.768827
 20
14.473340
 30
0.000000
 11
-20.849966
 21
14.491698
 31
0.000000
  0
LINE
  8
1
 10
-20.849966
 20
14.491698
 30
0.000000
 11
-20.933010
 21
14.509727
 31
0.000000
  0
LINE
  8
1
 10
-20.933010
 20
14.509727
 30
0.000000
 11
-21.017960
 21
14.527395
 31
0.000000
  0
LINE
  8
1
 10
-21.017960
 20
14.527395
 30
0.000000
 11
-21.104816
 21
14.544672
 31
0.000000
  0
LINE
  8
1
 10
-21.104816
 20
14.544672
 30
0.000000
 11
-21.193577
 21
14.561522
 31
0.000000
  0
LINE
  8
1
 10
-21.193577
 20
14.561522
 30
0.000000
 11
-21.284243
 21
14.577916
 31
0.000000
  0
LINE
  8
1
 10
-21.284243
 20
14.577916
 30
0.000000
 11
-21.376810
 21
14.593820
 31
0.000000
  0
LINE
  8
1
 10
-21.376810
 20
14.593820
 30
0.000000
 11
-21.471279
 21
14.609204
 31
0.000000
  0
LINE
  8
1
 10
-21.471279
 20
14.609204
 30
0.000000
 11
-21.567648
 21
14.624036
 31
0.000000
  0
LINE
  8
1
 10
-21.567648
 20
14.624036
 30
0.000000
 11
-21.665913
 21
14.638282
 31
0.000000
  0
LINE
  8
1
 10
-21.665913
 20
14.638282
 30
0.000000
 11
-21.766069
 21
14.651911
 31
0.000000
  0
LINE
  8
1
 10
-21.766069
 20
14.651911
 30
0.000000
 11
-21.868116
 21
14.664892
 31
0.000000
  0
LINE
  8
1
 10
-21.868116
 20
14.664892
 30
0.000000
 11
-21.972050
 21
14.677192
 31
0.000000
  0
LINE
  8
1
 10
-21.972050
 20
14.677192
 30
0.000000
 11
-22.077866
 21
14.688780
 31
0.000000
  0
LINE
  8
1
 10
-22.077866
 20
14.688780
 30
0.000000
 11
-22.185558
 21
14.699622
 31
0.000000
  0
LINE
  8
1
 10
-22.185558
 20
14.699622
 30
0.000000
 11
-22.295120
 21
14.709688
 31
0.000000
  0
LINE
  8
1
 10
-22.295120
 20
14.709688
 30
0.000000
 11
-22.406551
 21
14.718946
 31
0.000000
  0
LINE
  8
1
 10
-22.406551
 20
14.718946
 30
0.000000
 11
-22.519844
 21
14.727364
 31
0.000000
  0
LINE
  8
1
 10
-22.519844
 20
14.727364
 30
0.000000
 11
-22.625235
 21
14.734270
 31
0.000000
  0
LINE
  8
1
 10
-22.625235
 20
14.734270
 30
0.000000
 11
-23.378370
 21
13.507469
 31
0.000000
  0
LINE
  8
1
 10
-23.378370
 20
13.507469
 30
0.000000
 11
-23.324516
 21
13.416614
 31
0.000000
  0
LINE
  8
1
 10
-23.324516
 20
13.416614
 30
0.000000
 11
-23.265738
 21
13.319397
 31
0.000000
  0
LINE
  8
1
 10
-23.265738
 20
13.319397
 30
0.000000
 11
-23.207052
 21
13.224221
 31
0.000000
  0
LINE
  8
1
 10
-23.207052
 20
13.224221
 30
0.000000
 11
-23.148493
 21
13.131075
 31
0.000000
  0
LINE
  8
1
 10
-23.148493
 20
13.131075
 30
0.000000
 11
-23.090086
 21
13.039949
 31
0.000000
  0
LINE
  8
1
 10
-23.090086
 20
13.039949
 30
0.000000
 11
-23.031864
 21
12.950833
 31
0.000000
  0
LINE
  8
1
 10
-23.031864
 20
12.950833
 30
0.000000
 11
-22.973862
 21
12.863720
 31
0.000000
  0
LINE
  8
1
 10
-22.973862
 20
12.863720
 30
0.000000
 11
-22.916101
 21
12.778595
 31
0.000000
  0
LINE
  8
1
 10
-22.916101
 20
12.778595
 30
0.000000
 11
-22.858622
 21
12.695451
 31
0.000000
  0
LINE
  8
1
 10
-22.858622
 20
12.695451
 30
0.000000
 11
-22.801447
 21
12.614272
 31
0.000000
  0
LINE
  8
1
 10
-22.801447
 20
12.614272
 30
0.000000
 11
-22.744608
 21
12.535049
 31
0.000000
  0
LINE
  8
1
 10
-22.744608
 20
12.535049
 30
0.000000
 11
-22.688135
 21
12.457770
 31
0.000000
  0
LINE
  8
1
 10
-22.688135
 20
12.457770
 30
0.000000
 11
-22.632061
 21
12.382423
 31
0.000000
  0
LINE
  8
1
 10
-22.632061
 20
12.382423
 30
0.000000
 11
-22.576410
 21
12.308992
 31
0.000000
  0
LINE
  8
1
 10
-22.576410
 20
12.308992
 30
0.000000
 11
-22.521215
 21
12.237468
 31
0.000000
  0
LINE
  8
1
 10
-22.521215
 20
12.237468
 30
0.000000
 11
-22.466501
 21
12.167833
 31
0.000000
  0
LINE
  8
1
 10
-22.466501
 20
12.167833
 30
0.000000
 11
-22.412300
 21
12.100077
 31
0.000000
  0
LINE
  8
1
 10
-22.412300
 20
12.100077
 30
0.000000
 11
-22.358641
 21
12.034183
 31
0.000000
  0
LINE
  8
1
 10
-22.358641
 20
12.034183
 30
0.000000
 11
-22.305550
 21
11.970137
 31
0.000000
  0
LINE
  8
1
 10
-22.305550
 20
11.970137
 30
0.000000
 11
-22.253056
 21
11.907924
 31
0.000000
  0
LINE
  8
1
 10
-22.253056
 20
11.907924
 30
0.000000
 11
-22.201183
 21
11.847528
 31
0.000000
  0
LINE
  8
1
 10
-22.201183
 20
11.847528
 30
0.000000
 11
-22.149965
 21
11.788935
 31
0.000000
  0
LINE
  8
1
 10
-22.149965
 20
11.788935
 30
0.000000
 11
-22.099428
 21
11.732127
 31
0.000000
  0
LINE
  8
1
 10
-22.099428
 20
11.732127
 30
0.000000
 11
-22.049599
 21
11.677090
 31
0.000000
  0
LINE
  8
1
 10
-22.049599
 20
11.677090
 30
0.000000
 11
-22.000502
 21
11.623803
 31
0.000000
  0
LINE
  8
1
 10
-22.000502
 20
11.623803
 30
0.000000
 11
-21.952166
 21
11.572253
 31
0.000000
  0
LINE
  8
1
 10
-21.952166
 20
11.572253
 30
0.000000
 11
-21.904615
 21
11.522421
 31
0.000000
  0
LINE
  8
1
 10
-21.904615
 20
11.522421
 30
0.000000
 11
-21.857880
 21
11.474289
 31
0.000000
  0
LINE
  8
1
 10
-21.857880
 20
11.474289
 30
0.000000
 11
-21.811983
 21
11.427840
 31
0.000000
  0
LINE
  8
1
 10
-21.811983
 20
11.427840
 30
0.000000
 11
-21.766951
 21
11.383055
 31
0.000000
  0
LINE
  8
1
 10
-21.766951
 20
11.383055
 30
0.000000
 11
-21.722809
 21
11.339914
 31
0.000000
  0
LINE
  8
1
 10
-21.722809
 20
11.339914
 30
0.000000
 11
-21.679583
 21
11.298399
 31
0.000000
  0
LINE
  8
1
 10
-21.679583
 20
11.298399
 30
0.000000
 11
-21.637297
 21
11.258492
 31
0.000000
  0
LINE
  8
1
 10
-21.637297
 20
11.258492
 30
0.000000
 11
-21.595978
 21
11.220171
 31
0.000000
  0
LINE
  8
1
 10
-21.595978
 20
11.220171
 30
0.000000
 11
-21.555647
 21
11.183417
 31
0.000000
  0
LINE
  8
1
 10
-21.555647
 20
11.183417
 30
0.000000
 11
-21.516329
 21
11.148211
 31
0.000000
  0
LINE
  8
1
 10
-21.516329
 20
11.148211
 30
0.000000
 11
-21.478050
 21
11.114530
 31
0.000000
  0
LINE
  8
1
 10
-21.478050
 20
11.114530
 30
0.000000
 11
-21.440832
 21
11.082355
 31
0.000000
  0
LINE
  8
1
 10
-21.440832
 20
11.082355
 30
0.000000
 11
-21.404696
 21
11.051662
 31
0.000000
  0
LINE
  8
1
 10
-21.404696
 20
11.051662
 30
0.000000
 11
-21.369669
 21
11.022434
 31
0.000000
  0
LINE
  8
1
 10
-21.369669
 20
11.022434
 30
0.000000
 11
-21.335772
 21
10.994646
 31
0.000000
  0
LINE
  8
1
 10
-21.335772
 20
10.994646
 30
0.000000
 11
-21.303026
 21
10.968278
 31
0.000000
  0
LINE
  8
1
 10
-21.303026
 20
10.968278
 30
0.000000
 11
-21.271456
 21
10.943305
 31
0.000000
  0
LINE
  8
1
 10
-21.271456
 20
10.943305
 30
0.000000
 11
-21.241081
 21
10.919707
 31
0.000000
  0
LINE
  8
1
 10
-21.241081
 20
10.919707
 30
0.000000
 11
-21.211924
 21
10.897460
 31
0.000000
  0
LINE
  8
1
 10
-21.211924
 20
10.897460
 30
0.000000
 11
-21.184006
 21
10.876541
 31
0.000000
  0
LINE
  8
1
 10
-21.184006
 20
10.876541
 30
0.000000
 11
-21.157347
 21
10.856927
 31
0.000000
  0
LINE
  8
1
 10
-21.157347
 20
10.856927
 30
0.000000
 11
-21.131968
 21
10.838593
 31
0.000000
  0
LINE
  8
1
 10
-21.131968
 20
10.838593
 30
0.000000
 11
-21.107889
 21
10.821517
 31
0.000000
  0
LINE
  8
1
 10
-21.107889
 20
10.821517
 30
0.000000
 11
-21.085131
 21
10.805673
 31
0.000000
  0
LINE
  8
1
 10
-21.085131
 20
10.805673
 30
0.000000
 11
-21.063713
 21
10.791039
 31
0.000000
  0
LINE
  8
1
 10
-21.063713
 20
10.791039
 30
0.000000
 11
-21.043653
 21
10.777587
 31
0.000000
  0
LINE
  8
1
 10
-21.043653
 20
10.777587
 30
0.000000
 11
-21.024971
 21
10.765294
 31
0.000000
  0
LINE
  8
1
 10
-21.024971
 20
10.765294
 30
0.000000
 11
-21.007687
 21
10.754136
 31
0.000000
  0
LINE
  8
1
 10
-21.007687
 20
10.754136
 30
0.000000
 11
-20.991816
 21
10.744084
 31
0.000000
  0
LINE
  8
1
 10
-20.991816
 20
10.744084
 30
0.000000
 11
-20.977379
 21
10.735117
 31
0.000000
  0
LINE
  8
1
 10
-20.977379
 20
10.735117
 30
0.000000
 11
-20.964394
 21
10.727207
 31
0.000000
  0
LINE
  8
1
 10
-20.964394
 20
10.727207
 30
0.000000
 11
-20.952873
 21
10.720326
 31
0.000000
  0
LINE
  8
1
 10
-20.952873
 20
10.720326
 30
0.000000
 11
-20.942837
 21
10.714451
 31
0.000000
  0
LINE
  8
1
 10
-20.942837
 20
10.714451
 30
0.000000
 11
-20.934303
 21
10.709554
 31
0.000000
  0
LINE
  8
1
 10
-20.934303
 20
10.709554
 30
0.000000
 11
-20.927286
 21
10.705608
 31
0.000000
  0
LINE
  8
1
 10
-20.927286
 20
10.705608
 30
0.000000
 11
-20.921801
 21
10.702586
 31
0.000000
  0
LINE
  8
1
 10
-20.921801
 20
10.702586
 30
0.000000
 11
-20.917866
 21
10.700461
 31
0.000000
  0
LINE
  8
1
 10
-20.917866
 20
10.700461
 30
0.000000
 11
-20.914700
 21
10.698795
 31
0.000000
  0
LINE
  8
1
 10
-20.914700
 20
10.698795
 30
0.000000
 11
-20.031263
 21
10.246878
 31
0.000000
  0
LINE
  8
1
 10
-20.031263
 20
10.246878
 30
0.000000
 11
-20.919970
 21
8.282804
 31
0.000000
  0
LINE
  8
1
 10
-20.919970
 20
8.282804
 30
0.000000
 11
-21.842602
 21
8.648101
 31
0.000000
  0
LINE
  8
1
 10
-21.842602
 20
8.648101
 30
0.000000
 11
-21.845943
 21
8.649379
 31
0.000000
  0
LINE
  8
1
 10
-21.845943
 20
8.649379
 30
0.000000
 11
-21.850136
 21
8.650933
 31
0.000000
  0
LINE
  8
1
 10
-21.850136
 20
8.650933
 30
0.000000
 11
-21.856028
 21
8.653058
 31
0.000000
  0
LINE
  8
1
 10
-21.856028
 20
8.653058
 30
0.000000
 11
-21.863623
 21
8.655725
 31
0.000000
  0
LINE
  8
1
 10
-21.863623
 20
8.655725
 30
0.000000
 11
-21.872936
 21
8.658902
 31
0.000000
  0
LINE
  8
1
 10
-21.872936
 20
8.658902
 30
0.000000
 11
-21.883974
 21
8.662562
 31
0.000000
  0
LINE
  8
1
 10
-21.883974
 20
8.662562
 30
0.000000
 11
-21.896746
 21
8.666674
 31
0.000000
  0
LINE
  8
1
 10
-21.896746
 20
8.666674
 30
0.000000
 11
-21.911261
 21
8.671207
 31
0.000000
  0
LINE
  8
1
 10
-21.911261
 20
8.671207
 30
0.000000
 11
-21.927526
 21
8.676132
 31
0.000000
  0
LINE
  8
1
 10
-21.927526
 20
8.676132
 30
0.000000
 11
-21.945553
 21
8.681419
 31
0.000000
  0
LINE
  8
1
 10
-21.945553
 20
8.681419
 30
0.000000
 11
-21.965345
 21
8.687037
 31
0.000000
  0
LINE
  8
1
 10
-21.965345
 20
8.687037
 30
0.000000
 11
-21.986912
 21
8.692956
 31
0.000000
  0
LINE
  8
1
 10
-21.986912
 20
8.692956
 30
0.000000
 11
-22.010258
 21
8.699144
 31
0.000000
  0
LINE
  8
1
 10
-22.010258
 20
8.699144
 30
0.000000
 11
-22.035387
 21
8.705572
 31
0.000000
  0
LINE
  8
1
 10
-22.035387
 20
8.705572
 30
0.000000
 11
-22.062313
 21
8.712210
 31
0.000000
  0
LINE
  8
1
 10
-22.062313
 20
8.712210
 30
0.000000
 11
-22.091034
 21
8.719024
 31
0.000000
  0
LINE
  8
1
 10
-22.091034
 20
8.719024
 30
0.000000
 11
-22.121559
 21
8.725986
 31
0.000000
  0
LINE
  8
1
 10
-22.121559
 20
8.725986
 30
0.000000
 11
-22.153889
 21
8.733063
 31
0.000000
  0
LINE
  8
1
 10
-22.153889
 20
8.733063
 30
0.000000
 11
-22.188032
 21
8.740226
 31
0.000000
  0
LINE
  8
1
 10
-22.188032
 20
8.740226
 30
0.000000
 11
-22.223991
 21
8.747442
 31
0.000000
  0
LINE
  8
1
 10
-22.223991
 20
8.747442
 30
0.000000
 11
-22.261768
 21
8.754682
 31
0.000000
  0
LINE
  8
1
 10
-22.261768
 20
8.754682
 30
0.000000
 11
-22.301367
 21
8.761912
 31
0.000000
  0
LINE
  8
1
 10
-22.301367
 20
8.761912
 30
0.000000
 11
-22.342789
 21
8.769103
 31
0.000000
  0
LINE
  8
1
 10
-22.342789
 20
8.769103
 30
0.000000
 11
-22.386040
 21
8.776223
 31
0.000000
  0
LINE
  8
1
 10
-22.386040
 20
8.776223
 30
0.000000
 11
-22.431116
 21
8.783240
 31
0.000000
  0
LINE
  8
1
 10
-22.431116
 20
8.783240
 30
0.000000
 11
-22.478024
 21
8.790124
 31
0.000000
  0
LINE
  8
1
 10
-22.478024
 20
8.790124
 30
0.000000
 11
-22.526762
 21
8.796843
 31
0.000000
  0
LINE
  8
1
 10
-22.526762
 20
8.796843
 30
0.000000
 11
-22.577330
 21
8.803364
 31
0.000000
  0
LINE
  8
1
 10
-22.577330
 20
8.803364
 30
0.000000
 11
-22.629730
 21
8.809657
 31
0.000000
  0
LINE
  8
1
 10
-22.629730
 20
8.809657
 30
0.000000
 11
-22.683962
 21
8.815691
 31
0.000000
  0
LINE
  8
1
 10
-22.683962
 20
8.815691
 30
0.000000
 11
-22.740023
 21
8.821433
 31
0.000000
  0
LINE
  8
1
 10
-22.740023
 20
8.821433
 30
0.000000
 11
-22.797913
 21
8.826853
 31
0.000000
  0
LINE
  8
1
 10
-22.797913
 20
8.826853
 30
0.000000
 11
-22.857632
 21
8.831920
 31
0.000000
  0
LINE
  8
1
 10
-22.857632
 20
8.831920
 30
0.000000
 11
-22.919174
 21
8.836599
 31
0.000000
  0
LINE
  8
1
 10
-22.919174
 20
8.836599
 30
0.000000
 11
-22.982544
 21
8.840863
 31
0.000000
  0
LINE
  8
1
 10
-22.982544
 20
8.840863
 30
0.000000
 11
-23.047729
 21
8.844677
 31
0.000000
  0
LINE
  8
1
 10
-23.047729
 20
8.844677
 30
0.000000
 11
-23.114737
 21
8.848011
 31
0.000000
  0
LINE
  8
1
 10
-23.114737
 20
8.848011
 30
0.000000
 11
-23.183558
 21
8.850835
 31
0.000000
  0
LINE
  8
1
 10
-23.183558
 20
8.850835
 30
0.000000
 11
-23.254187
 21
8.853114
 31
0.000000
  0
LINE
  8
1
 10
-23.254187
 20
8.853114
 30
0.000000
 11
-23.326624
 21
8.854820
 31
0.000000
  0
LINE
  8
1
 10
-23.326624
 20
8.854820
 30
0.000000
 11
-23.400860
 21
8.855920
 31
0.000000
  0
LINE
  8
1
 10
-23.400860
 20
8.855920
 30
0.000000
 11
-23.476892
 21
8.856383
 31
0.000000
  0
LINE
  8
1
 10
-23.476892
 20
8.856383
 30
0.000000
 11
-23.554714
 21
8.856178
 31
0.000000
  0
LINE
  8
1
 10
-23.554714
 20
8.856178
 30
0.000000
 11
-23.634323
 21
8.855274
 31
0.000000
  0
LINE
  8
1
 10
-23.634323
 20
8.855274
 30
0.000000
 11
-23.715708
 21
8.853640
 31
0.000000
  0
LINE
  8
1
 10
-23.715708
 20
8.853640
 30
0.000000
 11
-23.798862
 21
8.851242
 31
0.000000
  0
LINE
  8
1
 10
-23.798862
 20
8.851242
 30
0.000000
 11
-23.883781
 21
8.848053
 31
0.000000
  0
LINE
  8
1
 10
-23.883781
 20
8.848053
 30
0.000000
 11
-23.970457
 21
8.844040
 31
0.000000
  0
LINE
  8
1
 10
-23.970457
 20
8.844040
 30
0.000000
 11
-24.058882
 21
8.839172
 31
0.000000
  0
LINE
  8
1
 10
-24.058882
 20
8.839172
 30
0.000000
 11
-24.149044
 21
8.833420
 31
0.000000
  0
LINE
  8
1
 10
-24.149044
 20
8.833420
 30
0.000000
 11
-24.240938
 21
8.826751
 31
0.000000
  0
LINE
  8
1
 10
-24.240938
 20
8.826751
 30
0.000000
 11
-24.334553
 21
8.819135
 31
0.000000
  0
LINE
  8
1
 10
-24.334553
 20
8.819135
 30
0.000000
 11
-24.429880
 21
8.810542
 31
0.000000
  0
LINE
  8
1
 10
-24.429880
 20
8.810542
 30
0.000000
 11
-24.526909
 21
8.800941
 31
0.000000
  0
LINE
  8
1
 10
-24.526909
 20
8.800941
 30
0.000000
 11
-24.625629
 21
8.790303
 31
0.000000
  0
LINE
  8
1
 10
-24.625629
 20
8.790303
 30
0.000000
 11
-24.726028
 21
8.778596
 31
0.000000
  0
LINE
  8
1
 10
-24.726028
 20
8.778596
 30
0.000000
 11
-24.828098
 21
8.765791
 31
0.000000
  0
LINE
  8
1
 10
-24.828098
 20
8.765791
 30
0.000000
 11
-24.931824
 21
8.751858
 31
0.000000
  0
LINE
  8
1
 10
-24.931824
 20
8.751858
 30
0.000000
 11
-25.037199
 21
8.736766
 31
0.000000
  0
LINE
  8
1
 10
-25.037199
 20
8.736766
 30
0.000000
 11
-25.144203
 21
8.720487
 31
0.000000
  0
LINE
  8
1
 10
-25.144203
 20
8.720487
 30
0.000000
 11
-25.252829
 21
8.702989
 31
0.000000
  0
LINE
  8
1
 10
-25.252829
 20
8.702989
 30
0.000000
 11
-25.363060
 21
8.684243
 31
0.000000
  0
LINE
  8
1
 10
-25.363060
 20
8.684243
 30
0.000000
 11
-25.474886
 21
8.664223
 31
0.000000
  0
LINE
  8
1
 10
-25.474886
 20
8.664223
 30
0.000000
 11
-25.578684
 21
8.644702
 31
0.000000
  0
LINE
  8
1
 10
-25.578684
 20
8.644702
 30
0.000000
 11
-26.003067
 21
7.269146
 31
0.000000
  0
LINE
  8
1
 10
-26.003067
 20
7.269146
 30
0.000000
 11
-25.928310
 21
7.194538
 31
0.000000
  0
LINE
  8
1
 10
-25.928310
 20
7.194538
 30
0.000000
 11
-25.847200
 21
7.114993
 31
0.000000
  0
LINE
  8
1
 10
-25.847200
 20
7.114993
 30
0.000000
 11
-25.766691
 21
7.037401
 31
0.000000
  0
LINE
  8
1
 10
-25.766691
 20
7.037401
 30
0.000000
 11
-25.686806
 21
6.961745
 31
0.000000
  0
LINE
  8
1
 10
-25.686806
 20
6.961745
 30
0.000000
 11
-25.607573
 21
6.888007
 31
0.000000
  0
LINE
  8
1
 10
-25.607573
 20
6.888007
 30
0.000000
 11
-25.529016
 21
6.816171
 31
0.000000
  0
LINE
  8
1
 10
-25.529016
 20
6.816171
 30
0.000000
 11
-25.451172
 21
6.746219
 31
0.000000
  0
LINE
  8
1
 10
-25.451172
 20
6.746219
 30
0.000000
 11
-25.374058
 21
6.678133
 31
0.000000
  0
LINE
  8
1
 10
-25.374058
 20
6.678133
 30
0.000000
 11
-25.297705
 21
6.611895
 31
0.000000
  0
LINE
  8
1
 10
-25.297705
 20
6.611895
 30
0.000000
 11
-25.222139
 21
6.547486
 31
0.000000
  0
LINE
  8
1
 10
-25.222139
 20
6.547486
 30
0.000000
 11
-25.147385
 21
6.484887
 31
0.000000
  0
LINE
  8
1
 10
-25.147385
 20
6.484887
 30
0.000000
 11
-25.073467
 21
6.424080
 31
0.000000
  0
LINE
  8
1
 10
-25.073467
 20
6.424080
 30
0.000000
 11
-25.000418
 21
6.365045
 31
0.000000
  0
LINE
  8
1
 10
-25.000418
 20
6.365045
 30
0.000000
 11
-24.928253
 21
6.307761
 31
0.000000
  0
LINE
  8
1
 10
-24.928253
 20
6.307761
 30
0.000000
 11
-24.857004
 21
6.252210
 31
0.000000
  0
LINE
  8
1
 10
-24.857004
 20
6.252210
 30
0.000000
 11
-24.786692
 21
6.198370
 31
0.000000
  0
LINE
  8
1
 10
-24.786692
 20
6.198370
 30
0.000000
 11
-24.717342
 21
6.146221
 31
0.000000
  0
LINE
  8
1
 10
-24.717342
 20
6.146221
 30
0.000000
 11
-24.648981
 21
6.095742
 31
0.000000
  0
LINE
  8
1
 10
-24.648981
 20
6.095742
 30
0.000000
 11
-24.581631
 21
6.046911
 31
0.000000
  0
LINE
  8
1
 10
-24.581631
 20
6.046911
 30
0.000000
 11
-24.515314
 21
5.999708
 31
0.000000
  0
LINE
  8
1
 10
-24.515314
 20
5.999708
 30
0.000000
 11
-24.450052
 21
5.954109
 31
0.000000
  0
LINE
  8
1
 10
-24.450052
 20
5.954109
 30
0.000000
 11
-24.385872
 21
5.910094
 31
0.000000
  0
LINE
  8
1
 10
-24.385872
 20
5.910094
 30
0.000000
 11
-24.322796
 21
5.867639
 31
0.000000
  0
LINE
  8
1
 10
-24.322796
 20
5.867639
 30
0.000000
 11
-24.260843
 21
5.826723
 31
0.000000
  0
LINE
  8
1
 10
-24.260843
 20
5.826723
 30
0.000000
 11
-24.200037
 21
5.787321
 31
0.000000
  0
LINE
  8
1
 10
-24.200037
 20
5.787321
 30
0.000000
 11
-24.140400
 21
5.749411
 31
0.000000
  0
LINE
  8
1
 10
-24.140400
 20
5.749411
 30
0.000000
 11
-24.081951
 21
5.712970
 31
0.000000
  0
LINE
  8
1
 10
-24.081951
 20
5.712970
 30
0.000000
 11
-24.024714
 21
5.677973
 31
0.000000
  0
LINE
  8
1
 10
-24.024714
 20
5.677973
 30
0.000000
 11
-23.968708
 21
5.644397
 31
0.000000
  0
LINE
  8
1
 10
-23.968708
 20
5.644397
 30
0.000000
 11
-23.913952
 21
5.612217
 31
0.000000
  0
LINE
  8
1
 10
-23.913952
 20
5.612217
 30
0.000000
 11
-23.860470
 21
5.581409
 31
0.000000
  0
LINE
  8
1
 10
-23.860470
 20
5.581409
 30
0.000000
 11
-23.808277
 21
5.551949
 31
0.000000
  0
LINE
  8
1
 10
-23.808277
 20
5.551949
 30
0.000000
 11
-23.757395
 21
5.523811
 31
0.000000
  0
LINE
  8
1
 10
-23.757395
 20
5.523811
 30
0.000000
 11
-23.707844
 21
5.496970
 31
0.000000
  0
LINE
  8
1
 10
-23.707844
 20
5.496970
 30
0.000000
 11
-23.659639
 21
5.471401
 31
0.000000
  0
LINE
  8
1
 10
-23.659639
 20
5.471401
 30
0.000000
 11
-23.612801
 21
5.447078
 31
0.000000
  0
LINE
  8
1
 10
-23.612801
 20
5.447078
 30
0.000000
 11
-23.567348
 21
5.423975
 31
0.000000
  0
LINE
  8
1
 10
-23.567348
 20
5.423975
 30
0.000000
 11
-23.523298
 21
5.402067
 31
0.000000
  0
LINE
  8
1
 10
-23.523298
 20
5.402067
 30
0.000000
 11
-23.480665
 21
5.381325
 31
0.000000
  0
LINE
  8
1
 10
-23.480665
 20
5.381325
 30
0.000000
 11
-23.439470
 21
5.361726
 31
0.000000
  0
LINE
  8
1
 10
-23.439470
 20
5.361726
 30
0.000000
 11
-23.399727
 21
5.343241
 31
0.000000
  0
LINE
  8
1
 10
-23.399727
 20
5.343241
 30
0.000000
 11
-23.361452
 21
5.325845
 31
0.000000
  0
LINE
  8
1
 10
-23.361452
 20
5.325845
 30
0.000000
 11
-23.324663
 21
5.309508
 31
0.000000
  0
LINE
  8
1
 10
-23.324663
 20
5.309508
 30
0.000000
 11
-23.289375
 21
5.294205
 31
0.000000
  0
LINE
  8
1
 10
-23.289375
 20
5.294205
 30
0.000000
 11
-23.255600
 21
5.279908
 31
0.000000
  0
LINE
  8
1
 10
-23.255600
 20
5.279908
 30
0.000000
 11
-23.223356
 21
5.266589
 31
0.000000
  0
LINE
  8
1
 10
-23.223356
 20
5.266589
 30
0.000000
 11
-23.192657
 21
5.254221
 31
0.000000
  0
LINE
  8
1
 10
-23.192657
 20
5.254221
 30
0.000000
 11
-23.163515
 21
5.242775
 31
0.000000
  0
LINE
  8
1
 10
-23.163515
 20
5.242775
 30
0.000000
 11
-23.135948
 21
5.232223
 31
0.000000
  0
LINE
  8
1
 10
-23.135948
 20
5.232223
 30
0.000000
 11
-23.109964
 21
5.222537
 31
0.000000
  0
LINE
  8
1
 10
-23.109964
 20
5.222537
 30
0.000000
 11
-23.085581
 21
5.213688
 31
0.000000
  0
LINE
  8
1
 10
-23.085581
 20
5.213688
 30
0.000000
 11
-23.062805
 21
5.205648
 31
0.000000
  0
LINE
  8
1
 10
-23.062805
 20
5.205648
 30
0.000000
 11
-23.041653
 21
5.198388
 31
0.000000
  0
LINE
  8
1
 10
-23.041653
 20
5.198388
 30
0.000000
 11
-23.022137
 21
5.191878
 31
0.000000
  0
LINE
  8
1
 10
-23.022137
 20
5.191878
 30
0.000000
 11
-23.004265
 21
5.186090
 31
0.000000
  0
LINE
  8
1
 10
-23.004265
 20
5.186090
 30
0.000000
 11
-22.988050
 21
5.180995
 31
0.000000
  0
LINE
  8
1
 10
-22.988050
 20
5.180995
 30
0.000000
 11
-22.973505
 21
5.176562
 31
0.000000
  0
LINE
  8
1
 10
-22.973505
 20
5.176562
 30
0.000000
 11
-22.960636
 21
5.172763
 31
0.000000
  0
LINE
  8
1
 10
-22.960636
 20
5.172763
 30
0.000000
 11
-22.949455
 21
5.169568
 31
0.000000
  0
LINE
  8
1
 10
-22.949455
 20
5.169568
 30
0.000000
 11
-22.939970
 21
5.166946
 31
0.000000
  0
LINE
  8
1
 10
-22.939970
 20
5.166946
 30
0.000000
 11
-22.932194
 21
5.164870
 31
0.000000
  0
LINE
  8
1
 10
-22.932194
 20
5.164870
 30
0.000000
 11
-22.926128
 21
5.163307
 31
0.000000
  0
LINE
  8
1
 10
-22.926128
 20
5.163307
 30
0.000000
 11
-22.921789
 21
5.162228
 31
0.000000
  0
LINE
  8
1
 10
-22.921789
 20
5.162228
 30
0.000000
 11
-22.918308
 21
5.161401
 31
0.000000
  0
LINE
  8
1
 10
-22.918308
 20
5.161401
 30
0.000000
 11
-21.950239
 21
4.943384
 31
0.000000
  0
LINE
  8
1
 10
-21.950239
 20
4.943384
 30
0.000000
 11
-22.322580
 21
2.820003
 31
0.000000
  0
LINE
  8
1
 10
-22.322580
 20
2.820003
 30
0.000000
 11
-23.307070
 21
2.944373
 31
0.000000
  0
LINE
  8
1
 10
-23.307070
 20
2.944373
 30
0.000000
 11
-23.310625
 21
2.944780
 31
0.000000
  0
LINE
  8
1
 10
-23.310625
 20
2.944780
 30
0.000000
 11
-23.315073
 21
2.945242
 31
0.000000
  0
LINE
  8
1
 10
-23.315073
 20
2.945242
 30
0.000000
 11
-23.321308
 21
2.945836
 31
0.000000
  0
LINE
  8
1
 10
-23.321308
 20
2.945836
 30
0.000000
 11
-23.329329
 21
2.946529
 31
0.000000
  0
LINE
  8
1
 10
-23.329329
 20
2.946529
 30
0.000000
 11
-23.339138
 21
2.947291
 31
0.000000
  0
LINE
  8
1
 10
-23.339138
 20
2.947291
 30
0.000000
 11
-23.350740
 21
2.948091
 31
0.000000
  0
LINE
  8
1
 10
-23.350740
 20
2.948091
 30
0.000000
 11
-23.364134
 21
2.948897
 31
0.000000
  0
LINE
  8
1
 10
-23.364134
 20
2.948897
 30
0.000000
 11
-23.379318
 21
2.949678
 31
0.000000
  0
LINE
  8
1
 10
-23.379318
 20
2.949678
 30
0.000000
 11
-23.396299
 21
2.950403
 31
0.000000
  0
LINE
  8
1
 10
-23.396299
 20
2.950403
 30
0.000000
 11
-23.415075
 21
2.951042
 31
0.000000
  0
LINE
  8
1
 10
-23.415075
 20
2.951042
 30
0.000000
 11
-23.435642
 21
2.951561
 31
0.000000
  0
LINE
  8
1
 10
-23.435642
 20
2.951561
 30
0.000000
 11
-23.458002
 21
2.951930
 31
0.000000
  0
LINE
  8
1
 10
-23.458002
 20
2.951930
 30
0.000000
 11
-23.482153
 21
2.952119
 31
0.000000
  0
LINE
  8
1
 10
-23.482153
 20
2.952119
 30
0.000000
 11
-23.508093
 21
2.952095
 31
0.000000
  0
LINE
  8
1
 10
-23.508093
 20
2.952095
 30
0.000000
 11
-23.535822
 21
2.951827
 31
0.000000
  0
LINE
  8
1
 10
-23.535822
 20
2.951827
 30
0.000000
 11
-23.565336
 21
2.951285
 31
0.000000
  0
LINE
  8
1
 10
-23.565336
 20
2.951285
 30
0.000000
 11
-23.596634
 21
2.950437
 31
0.000000
  0
LINE
  8
1
 10
-23.596634
 20
2.950437
 30
0.000000
 11
-23.629709
 21
2.949252
 31
0.000000
  0
LINE
  8
1
 10
-23.629709
 20
2.949252
 30
0.000000
 11
-23.664560
 21
2.947698
 31
0.000000
  0
LINE
  8
1
 10
-23.664560
 20
2.947698
 30
0.000000
 11
-23.701183
 21
2.945746
 31
0.000000
  0
LINE
  8
1
 10
-23.701183
 20
2.945746
 30
0.000000
 11
-23.739574
 21
2.943362
 31
0.000000
  0
LINE
  8
1
 10
-23.739574
 20
2.943362
 30
0.000000
 11
-23.779728
 21
2.940518
 31
0.000000
  0
LINE
  8
1
 10
-23.779728
 20
2.940518
 30
0.000000
 11
-23.821636
 21
2.937182
 31
0.000000
  0
LINE
  8
1
 10
-23.821636
 20
2.937182
 30
0.000000
 11
-23.865297
 21
2.933322
 31
0.000000
  0
LINE
  8
1
 10
-23.865297
 20
2.933322
 30
0.000000
 11
-23.910704
 21
2.928909
 31
0.000000
  0
LINE
  8
1
 10
-23.910704
 20
2.928909
 30
0.000000
 11
-23.957850
 21
2.923911
 31
0.000000
  0
LINE
  8
1
 10
-23.957850
 20
2.923911
 30
0.000000
 11
-24.006727
 21
2.918298
 31
0.000000
  0
LINE
  8
1
 10
-24.006727
 20
2.918298
 30
0.000000
 11
-24.057329
 21
2.912038
 31
0.000000
  0
LINE
  8
1
 10
-24.057329
 20
2.912038
 30
0.000000
 11
-24.109648
 21
2.905102
 31
0.000000
  0
LINE
  8
1
 10
-24.109648
 20
2.905102
 30
0.000000
 11
-24.163675
 21
2.897460
 31
0.000000
  0
LINE
  8
1
 10
-24.163675
 20
2.897460
 30
0.000000
 11
-24.219402
 21
2.889080
 31
0.000000
  0
LINE
  8
1
 10
-24.219402
 20
2.889080
 30
0.000000
 11
-24.276823
 21
2.879933
 31
0.000000
  0
LINE
  8
1
 10
-24.276823
 20
2.879933
 30
0.000000
 11
-24.335926
 21
2.869989
 31
0.000000
  0
LINE
  8
1
 10
-24.335926
 20
2.869989
 30
0.000000
 11
-24.396700
 21
2.859216
 31
0.000000
  0
LINE
  8
1
 10
-24.396700
 20
2.859216
 30
0.000000
 11
-24.459137
 21
2.847587
 31
0.000000
  0
LINE
  8
1
 10
-24.459137
 20
2.847587
 30
0.000000
 11
-24.523226
 21
2.835070
 31
0.000000
  0
LINE
  8
1
 10
-24.523226
 20
2.835070
 30
0.000000
 11
-24.588955
 21
2.821636
 31
0.000000
  0
LINE
  8
1
 10
-24.588955
 20
2.821636
 30
0.000000
 11
-24.656315
 21
2.807255
 31
0.000000
  0
LINE
  8
1
 10
-24.656315
 20
2.807255
 30
0.000000
 11
-24.725294
 21
2.791899
 31
0.000000
  0
LINE
  8
1
 10
-24.725294
 20
2.791899
 30
0.000000
 11
-24.795879
 21
2.775537
 31
0.000000
  0
LINE
  8
1
 10
-24.795879
 20
2.775537
 30
0.000000
 11
-24.868055
 21
2.758140
 31
0.000000
  0
LINE
  8
1
 10
-24.868055
 20
2.758140
 30
0.000000
 11
-24.941814
 21
2.739680
 31
0.000000
  0
LINE
  8
1
 10
-24.941814
 20
2.739680
 30
0.000000
 11
-25.017141
 21
2.720128
 31
0.000000
  0
LINE
  8
1
 10
-25.017141
 20
2.720128
 30
0.000000
 11
-25.094025
 21
2.699455
 31
0.000000
  0
LINE
  8
1
 10
-25.094025
 20
2.699455
 30
0.000000
 11
-25.172445
 21
2.677632
 31
0.000000
  0
LINE
  8
1
 10
-25.172445
 20
2.677632
 30
0.000000
 11
-25.252392
 21
2.654630
 31
0.000000
  0
LINE
  8
1
 10
-25.252392
 20
2.654630
 30
0.000000
 11
-25.333849
 21
2.630422
 31
0.000000
  0
LINE
  8
1
 10
-25.333849
 20
2.630422
 30
0.000000
 11
-25.416803
 21
2.604980
 31
0.000000
  0
LINE
  8
1
 10
-25.416803
 20
2.604980
 30
0.000000
 11
-25.501240
 21
2.578276
 31
0.000000
  0
LINE
  8
1
 10
-25.501240
 20
2.578276
 30
0.000000
 11
-25.587139
 21
2.550281
 31
0.000000
  0
LINE
  8
1
 10
-25.587139
 20
2.550281
 30
0.000000
 11
-25.674488
 21
2.520968
 31
0.000000
  0
LINE
  8
1
 10
-25.674488
 20
2.520968
 30
0.000000
 11
-25.763266
 21
2.490311
 31
0.000000
  0
LINE
  8
1
 10
-25.763266
 20
2.490311
 30
0.000000
 11
-25.853462
 21
2.458281
 31
0.000000
  0
LINE
  8
1
 10
-25.853462
 20
2.458281
 30
0.000000
 11
-25.945055
 21
2.424852
 31
0.000000
  0
LINE
  8
1
 10
-25.945055
 20
2.424852
 30
0.000000
 11
-26.038029
 21
2.389997
 31
0.000000
  0
LINE
  8
1
 10
-26.038029
 20
2.389997
 30
0.000000
 11
-26.132362
 21
2.353690
 31
0.000000
  0
LINE
  8
1
 10
-26.132362
 20
2.353690
 30
0.000000
 11
-26.228041
 21
2.315903
 31
0.000000
  0
LINE
  8
1
 10
-26.228041
 20
2.315903
 30
0.000000
 11
-26.325043
 21
2.276611
 31
0.000000
  0
LINE
  8
1
 10
-26.325043
 20
2.276611
 30
0.000000
 11
-26.423353
 21
2.235789
 31
0.000000
  0
LINE
  8
1
 10
-26.423353
 20
2.235789
 30
0.000000
 11
-26.522949
 21
2.193409
 31
0.000000
  0
LINE
  8
1
 10
-26.522949
 20
2.193409
 30
0.000000
 11
-26.623810
 21
2.149447
 31
0.000000
  0
LINE
  8
1
 10
-26.623810
 20
2.149447
 30
0.000000
 11
-26.725916
 21
2.103878
 31
0.000000
  0
LINE
  8
1
 10
-26.725916
 20
2.103878
 30
0.000000
 11
-26.829250
 21
2.056676
 31
0.000000
  0
LINE
  8
1
 10
-26.829250
 20
2.056676
 30
0.000000
 11
-26.924932
 21
2.011955
 31
0.000000
  0
LINE
  8
1
 10
-26.924932
 20
2.011955
 30
0.000000
 11
-26.993896
 21
0.574075
 31
0.000000
  0
LINE
  8
1
 10
-26.993896
 20
0.574075
 30
0.000000
 11
-26.902933
 21
0.520403
 31
0.000000
  0
LINE
  8
1
 10
-26.902933
 20
0.520403
 30
0.000000
 11
-26.804590
 21
0.463528
 31
0.000000
  0
LINE
  8
1
 10
-26.804590
 20
0.463528
 30
0.000000
 11
-26.707314
 21
0.408396
 31
0.000000
  0
LINE
  8
1
 10
-26.707314
 20
0.408396
 30
0.000000
 11
-26.611122
 21
0.354983
 31
0.000000
  0
LINE
  8
1
 10
-26.611122
 20
0.354983
 30
0.000000
 11
-26.516041
 21
0.303266
 31
0.000000
  0
LINE
  8
1
 10
-26.516041
 20
0.303266
 30
0.000000
 11
-26.422089
 21
0.253222
 31
0.000000
  0
LINE
  8
1
 10
-26.422089
 20
0.253222
 30
0.000000
 11
-26.329292
 21
0.204828
 31
0.000000
  0
LINE
  8
1
 10
-26.329292
 20
0.204828
 30
0.000000
 11
-26.237669
 21
0.158058
 31
0.000000
  0
LINE
  8
1
 10
-26.237669
 20
0.158058
 30
0.000000
 11
-26.147243
 21
0.112889
 31
0.000000
  0
LINE
  8
1
 10
-26.147243
 20
0.112889
 30
0.000000
 11
-26.058033
 21
0.069296
 31
0.000000
  0
LINE
  8
1
 10
-26.058033
 20
0.069296
 30
0.000000
 11
-25.970058
 21
0.027255
 31
0.000000
  0
LINE
  8
1
 10
-25.970058
 20
0.027255
 30
0.000000
 11
-25.883343
 21
-0.013260
 31
0.000000
  0
LINE
  8
1
 10
-25.883343
 20
-0.013260
 30
0.000000
 11
-25.797905
 21
-0.052273
 31
0.000000
  0
LINE
  8
1
 10
-25.797905
 20
-0.052273
 30
0.000000
 11
-25.713762
 21
-0.089810
 31
0.000000
  0
LINE
  8
1
 10
-25.713762
 20
-0.089810
 30
0.000000
 11
-25.630936
 21
-0.125898
 31
0.000000
  0
LINE
  8
1
 10
-25.630936
 20
-0.125898
 30
0.000000
 11
-25.549444
 21
-0.160560
 31
0.000000
  0
LINE
  8
1
 10
-25.549444
 20
-0.160560
 30
0.000000
 11
-25.469305
 21
-0.193825
 31
0.000000
  0
LINE
  8
1
 10
-25.469305
 20
-0.193825
 30
0.000000
 11
-25.390537
 21
-0.225717
 31
0.000000
  0
LINE
  8
1
 10
-25.390537
 20
-0.225717
 30
0.000000
 11
-25.313160
 21
-0.256264
 31
0.000000
  0
LINE
  8
1
 10
-25.313160
 20
-0.256264
 30
0.000000
 11
-25.237186
 21
-0.285492
 31
0.000000
  0
LINE
  8
1
 10
-25.237186
 20
-0.285492
 30
0.000000
 11
-25.162636
 21
-0.313429
 31
0.000000
  0
LINE
  8
1
 10
-25.162636
 20
-0.313429
 30
0.000000
 11
-25.089525
 21
-0.340100
 31
0.000000
  0
LINE
  8
1
 10
-25.089525
 20
-0.340100
 30
0.000000
 11
-25.017872
 21
-0.365534
 31
0.000000
  0
LINE
  8
1
 10
-25.017872
 20
-0.365534
 30
0.000000
 11
-24.947691
 21
-0.389759
 31
0.000000
  0
LINE
  8
1
 10
-24.947691
 20
-0.389759
 30
0.000000
 11
-24.878996
 21
-0.412800
 31
0.000000
  0
LINE
  8
1
 10
-24.878996
 20
-0.412800
 30
0.000000
 11
-24.811804
 21
-0.434688
 31
0.000000
  0
LINE
  8
1
 10
-24.811804
 20
-0.434688
 30
0.000000
 11
-24.746130
 21
-0.455449
 31
0.000000
  0
LINE
  8
1
 10
-24.746130
 20
-0.455449
 30
0.000000
 11
-24.681986
 21
-0.475112
 31
0.000000
  0
LINE
  8
1
 10
-24.681986
 20
-0.475112
 30
0.000000
 11
-24.619390
 21
-0.493705
 31
0.000000
  0
LINE
  8
1
 10
-24.619390
 20
-0.493705
 30
0.000000
 11
-24.558353
 21
-0.511257
 31
0.000000
  0
LINE
  8
1
 10
-24.558353
 20
-0.511257
 30
0.000000
 11
-24.498888
 21
-0.527796
 31
0.000000
  0
LINE
  8
1
 10
-24.498888
 20
-0.527796
 30
0.000000
 11
-24.441010
 21
-0.543351
 31
0.000000
  0
LINE
  8
1
 10
-24.441010
 20
-0.543351
 30
0.000000
 11
-24.384727
 21
-0.557951
 31
0.000000
  0
LINE
  8
1
 10
-24.384727
 20
-0.557951
 30
0.000000
 11
-24.330059
 21
-0.571626
 31
0.000000
  0
LINE
  8
1
 10
-24.330059
 20
-0.571626
 30
0.000000
 11
-24.277010
 21
-0.584404
 31
0.000000
  0
LINE
  8
1
 10
-24.277010
 20
-0.584404
 30
0.000000
 11
-24.225595
 21
-0.596315
 31
0.000000
  0
LINE
  8
1
 10
-24.225595
 20
-0.596315
 30
0.000000
 11
-24.175825
 21
-0.607388
 31
0.000000
  0
LINE
  8
1
 10
-24.175825
 20
-0.607388
 30
0.000000
 11
-24.127708
 21
-0.617653
 31
0.000000
  0
LINE
  8
1
 10
-24.127708
 20
-0.617653
 30
0.000000
 11
-24.081257
 21
-0.627140
 31
0.000000
  0
LINE
  8
1
 10
-24.081257
 20
-0.627140
 30
0.000000
 11
-24.036482
 21
-0.635879
 31
0.000000
  0
LINE
  8
1
 10
-24.036482
 20
-0.635879
 30
0.000000
 11
-23.993391
 21
-0.643899
 31
0.000000
  0
LINE
  8
1
 10
-23.993391
 20
-0.643899
 30
0.000000
 11
-23.951994
 21
-0.651231
 31
0.000000
  0
LINE
  8
1
 10
-23.951994
 20
-0.651231
 30
0.000000
 11
-23.912296
 21
-0.657905
 31
0.000000
  0
LINE
  8
1
 10
-23.912296
 20
-0.657905
 30
0.000000
 11
-23.874311
 21
-0.663951
 31
0.000000
  0
LINE
  8
1
 10
-23.874311
 20
-0.663951
 30
0.000000
 11
-23.838041
 21
-0.669400
 31
0.000000
  0
LINE
  8
1
 10
-23.838041
 20
-0.669400
 30
0.000000
 11
-23.803499
 21
-0.674282
 31
0.000000
  0
LINE
  8
1
 10
-23.803499
 20
-0.674282
 30
0.000000
 11
-23.770689
 21
-0.678627
 31
0.000000
  0
LINE
  8
1
 10
-23.770689
 20
-0.678627
 30
0.000000
 11
-23.739616
 21
-0.682467
 31
0.000000
  0
LINE
  8
1
 10
-23.739616
 20
-0.682467
 30
0.000000
 11
-23.710291
 21
-0.685831
 31
0.000000
  0
LINE
  8
1
 10
-23.710291
 20
-0.685831
 30
0.000000
 11
-23.682714
 21
-0.688751
 31
0.000000
  0
LINE
  8
1
 10
-23.682714
 20
-0.688751
 30
0.000000
 11
-23.656895
 21
-0.691257
 31
0.000000
  0
LINE
  8
1
 10
-23.656895
 20
-0.691257
 30
0.000000
 11
-23.632837
 21
-0.693381
 31
0.000000
  0
LINE
  8
1
 10
-23.632837
 20
-0.693381
 30
0.000000
 11
-23.610544
 21
-0.695153
 31
0.000000
  0
LINE
  8
1
 10
-23.610544
 20
-0.695153
 30
0.000000
 11
-23.590021
 21
-0.696605
 31
0.000000
  0
LINE
  8
1
 10
-23.590021
 20
-0.696605
 30
0.000000
 11
-23.571272
 21
-0.697766
 31
0.000000
  0
LINE
  8
1
 10
-23.571272
 20
-0.697766
 30
0.000000
 11
-23.554300
 21
-0.698670
 31
0.000000
  0
LINE
  8
1
 10
-23.554300
 20
-0.698670
 30
0.000000
 11
-23.539110
 21
-0.699345
 31
0.000000
  0
LINE
  8
1
 10
-23.539110
 20
-0.699345
 30
0.000000
 11
-23.525700
 21
-0.699825
 31
0.000000
  0
LINE
  8
1
 10
-23.525700
 20
-0.699825
 30
0.000000
 11
-23.514074
 21
-0.700139
 31
0.000000
  0
LINE
  8
1
 10
-23.514074
 20
-0.700139
 30
0.000000
 11
-23.504236
 21
-0.700319
 31
0.000000
  0
LINE
  8
1
 10
-23.504236
 20
-0.700319
 30
0.000000
 11
-23.496187
 21
-0.700396
 31
0.000000
  0
LINE
  8
1
 10
-23.496187
 20
-0.700396
 30
0.000000
 11
-23.489925
 21
-0.700402
 31
0.000000
  0
LINE
  8
1
 10
-23.489925
 20
-0.700402
 30
0.000000
 11
-23.485453
 21
-0.700368
 31
0.000000
  0
LINE
  8
1
 10
-23.485453
 20
-0.700368
 30
0.000000
 11
-23.481874
 21
-0.700303
 31
0.000000
  0
LINE
  8
1
 10
-23.481874
 20
-0.700303
 30
0.000000
 11
-22.490002
 21
-0.670722
 31
0.000000
  0
LINE
  8
1
 10
-22.490002
 20
-0.670722
 30
0.000000
 11
-22.322580
 21
-2.819991
 31
0.000000
  0
LINE
  8
1
 10
-22.322580
 20
-2.819991
 30
0.000000
 11
-23.307072
 21
-2.944360
 31
0.000000
  0
LINE
  8
1
 10
-23.307072
 20
-2.944360
 30
0.000000
 11
-23.310617
 21
-2.944850
 31
0.000000
  0
LINE
  8
1
 10
-23.310617
 20
-2.944850
 30
0.000000
 11
-23.315041
 21
-2.945509
 31
0.000000
  0
LINE
  8
1
 10
-23.315041
 20
-2.945509
 30
0.000000
 11
-23.321226
 21
-2.946484
 31
0.000000
  0
LINE
  8
1
 10
-23.321226
 20
-2.946484
 30
0.000000
 11
-23.329166
 21
-2.947807
 31
0.000000
  0
LINE
  8
1
 10
-23.329166
 20
-2.947807
 30
0.000000
 11
-23.338858
 21
-2.949509
 31
0.000000
  0
LINE
  8
1
 10
-23.338858
 20
-2.949509
 30
0.000000
 11
-23.350294
 21
-2.951619
 31
0.000000
  0
LINE
  8
1
 10
-23.350294
 20
-2.951619
 30
0.000000
 11
-23.363468
 21
-2.954169
 31
0.000000
  0
LINE
  8
1
 10
-23.363468
 20
-2.954169
 30
0.000000
 11
-23.378370
 21
-2.957189
 31
0.000000
  0
LINE
  8
1
 10
-23.378370
 20
-2.957189
 30
0.000000
 11
-23.394997
 21
-2.960710
 31
0.000000
  0
LINE
  8
1
 10
-23.394997
 20
-2.960710
 30
0.000000
 11
-23.413342
 21
-2.964761
 31
0.000000
  0
LINE
  8
1
 10
-23.413342
 20
-2.964761
 30
0.000000
 11
-23.433392
 21
-2.969373
 31
0.000000
  0
LINE
  8
1
 10
-23.433392
 20
-2.969373
 30
0.000000
 11
-23.455141
 21
-2.974575
 31
0.000000
  0
LINE
  8
1
 10
-23.455141
 20
-2.974575
 30
0.000000
 11
-23.478580
 21
-2.980399
 31
0.000000
  0
LINE
  8
1
 10
-23.478580
 20
-2.980399
 30
0.000000
 11
-23.503698
 21
-2.986873
 31
0.000000
  0
LINE
  8
1
 10
-23.503698
 20
-2.986873
 30
0.000000
 11
-23.530491
 21
-2.994028
 31
0.000000
  0
LINE
  8
1
 10
-23.530491
 20
-2.994028
 30
0.000000
 11
-23.558943
 21
-3.001894
 31
0.000000
  0
LINE
  8
1
 10
-23.558943
 20
-3.001894
 30
0.000000
 11
-23.589046
 21
-3.010498
 31
0.000000
  0
LINE
  8
1
 10
-23.589046
 20
-3.010498
 30
0.000000
 11
-23.620787
 21
-3.019872
 31
0.000000
  0
LINE
  8
1
 10
-23.620787
 20
-3.019872
 30
0.000000
 11
-23.654158
 21
-3.030044
 31
0.000000
  0
LINE
  8
1
 10
-23.654158
 20
-3.030044
 30
0.000000
 11
-23.689146
 21
-3.041043
 31
0.000000
  0
LINE
  8
1
 10
-23.689146
 20
-3.041043
 30
0.000000
 11
-23.725737
 21
-3.052898
 31
0.000000
  0
LINE
  8
1
 10
-23.725737
 20
-3.052898
 30
0.000000
 11
-23.763922
 21
-3.065639
 31
0.000000
  0
LINE
  8
1
 10
-23.763922
 20
-3.065639
 30
0.000000
 11
-23.803684
 21
-3.079293
 31
0.000000
  0
LINE
  8
1
 10
-23.803684
 20
-3.079293
 30
0.000000
 11
-23.845013
 21
-3.093889
 31
0.000000
  0
LINE
  8
1
 10
-23.845013
 20
-3.093889
 30
0.000000
 11
-23.887896
 21
-3.109456
 31
0.000000
  0
LINE
  8
1
 10
-23.887896
 20
-3.109456
 30
0.000000
 11
-23.932318
 21
-3.126022
 31
0.000000
  0
LINE
  8
1
 10
-23.932318
 20
-3.126022
 30
0.000000
 11
-23.978264
 21
-3.143614
 31
0.000000
  0
LINE
  8
1
 10
-23.978264
 20
-3.143614
 30
0.000000
 11
-24.025719
 21
-3.162261
 31
0.000000
  0
LINE
  8
1
 10
-24.025719
 20
-3.162261
 30
0.000000
 11
-24.074669
 21
-3.181990
 31
0.000000
  0
LINE
  8
1
 10
-24.074669
 20
-3.181990
 30
0.000000
 11
-24.125099
 21
-3.202828
 31
0.000000
  0
LINE
  8
1
 10
-24.125099
 20
-3.202828
 30
0.000000
 11
-24.176991
 21
-3.224804
 31
0.000000
  0
LINE
  8
1
 10
-24.176991
 20
-3.224804
 30
0.000000
 11
-24.230331
 21
-3.247943
 31
0.000000
  0
LINE
  8
1
 10
-24.230331
 20
-3.247943
 30
0.000000
 11
-24.285105
 21
-3.272273
 31
0.000000
  0
LINE
  8
1
 10
-24.285105
 20
-3.272273
 30
0.000000
 11
-24.341291
 21
-3.297821
 31
0.000000
  0
LINE
  8
1
 10
-24.341291
 20
-3.297821
 30
0.000000
 11
-24.398874
 21
-3.324613
 31
0.000000
  0
LINE
  8
1
 10
-24.398874
 20
-3.324613
 30
0.000000
 11
-24.457836
 21
-3.352675
 31
0.000000
  0
LINE
  8
1
 10
-24.457836
 20
-3.352675
 30
0.000000
 11
-24.518160
 21
-3.382033
 31
0.000000
  0
LINE
  8
1
 10
-24.518160
 20
-3.382033
 30
0.000000
 11
-24.579828
 21
-3.412714
 31
0.000000
  0
LINE
  8
1
 10
-24.579828
 20
-3.412714
 30
0.000000
 11
-24.642820
 21
-3.444742
 31
0.000000
  0
LINE
  8
1
 10
-24.642820
 20
-3.444742
 30
0.000000
 11
-24.707119
 21
-3.478143
 31
0.000000
  0
LINE
  8
1
 10
-24.707119
 20
-3.478143
 30
0.000000
 11
-24.772701
 21
-3.512943
 31
0.000000
  0
LINE
  8
1
 10
-24.772701
 20
-3.512943
 30
0.000000
 11
-24.839552
 21
-3.549166
 31
0.000000
  0
LINE
  8
1
 10
-24.839552
 20
-3.549166
 30
0.000000
 11
-24.907652
 21
-3.586838
 31
0.000000
  0
LINE
  8
1
 10
-24.907652
 20
-3.586838
 30
0.000000
 11
-24.976976
 21
-3.625981
 31
0.000000
  0
LINE
  8
1
 10
-24.976976
 20
-3.625981
 30
0.000000
 11
-25.047506
 21
-3.666621
 31
0.000000
  0
LINE
  8
1
 10
-25.047506
 20
-3.666621
 30
0.000000
 11
-25.119221
 21
-3.708782
 31
0.000000
  0
LINE
  8
1
 10
-25.119221
 20
-3.708782
 30
0.000000
 11
-25.192101
 21
-3.752487
 31
0.000000
  0
LINE
  8
1
 10
-25.192101
 20
-3.752487
 30
0.000000
 11
-25.266121
 21
-3.797760
 31
0.000000
  0
LINE
  8
1
 10
-25.266121
 20
-3.797760
 30
0.000000
 11
-25.341263
 21
-3.844624
 31
0.000000
  0
LINE
  8
1
 10
-25.341263
 20
-3.844624
 30
0.000000
 11
-25.417501
 21
-3.893101
 31
0.000000
  0
LINE
  8
1
 10
-25.417501
 20
-3.893101
 30
0.000000
 11
-25.494816
 21
-3.943215
 31
0.000000
  0
LINE
  8
1
 10
-25.494816
 20
-3.943215
 30
0.000000
 11
-25.573181
 21
-3.994988
 31
0.000000
  0
LINE
  8
1
 10
-25.573181
 20
-3.994988
 30
0.000000
 11
-25.652578
 21
-4.048442
 31
0.000000
  0
LINE
  8
1
 10
-25.652578
 20
-4.048442
 30
0.000000
 11
-25.732981
 21
-4.103600
 31
0.000000
  0
LINE
  8
1
 10
-25.732981
 20
-4.103600
 30
0.000000
 11
-25.814365
 21
-4.160480
 31
0.000000
  0
LINE
  8
1
 10
-25.814365
 20
-4.160480
 30
0.000000
 11
-25.896706
 21
-4.219108
 31
0.000000
  0
LINE
  8
1
 10
-25.896706
 20
-4.219108
 30
0.000000
 11
-25.979980
 21
-4.279501
 31
0.000000
  0
LINE
  8
1
 10
-25.979980
 20
-4.279501
 30
0.000000
 11
-26.064165
 21
-4.341682
 31
0.000000
  0
LINE
  8
1
 10
-26.064165
 20
-4.341682
 30
0.000000
 11
-26.149233
 21
-4.405671
 31
0.000000
  0
LINE
  8
1
 10
-26.149233
 20
-4.405671
 30
0.000000
 11
-26.235161
 21
-4.471487
 31
0.000000
  0
LINE
  8
1
 10
-26.235161
 20
-4.471487
 30
0.000000
 11
-26.321918
 21
-4.539151
 31
0.000000
  0
LINE
  8
1
 10
-26.321918
 20
-4.539151
 30
0.000000
 11
-26.409485
 21
-4.608682
 31
0.000000
  0
LINE
  8
1
 10
-26.409485
 20
-4.608682
 30
0.000000
 11
-26.497835
 21
-4.680099
 31
0.000000
  0
LINE
  8
1
 10
-26.497835
 20
-4.680099
 30
0.000000
 11
-26.579390
 21
-4.747210
 31
0.000000
  0
LINE
  8
1
 10
-26.579390
 20
-4.747210
 30
0.000000
 11
-26.288601
 21
-6.157066
 31
0.000000
  0
LINE
  8
1
 10
-26.288601
 20
-6.157066
 30
0.000000
 11
-26.187147
 21
-6.186431
 31
0.000000
  0
LINE
  8
1
 10
-26.187147
 20
-6.186431
 30
0.000000
 11
-26.077749
 21
-6.217062
 31
0.000000
  0
LINE
  8
1
 10
-26.077749
 20
-6.217062
 30
0.000000
 11
-25.969818
 21
-6.246271
 31
0.000000
  0
LINE
  8
1
 10
-25.969818
 20
-6.246271
 30
0.000000
 11
-25.863367
 21
-6.274084
 31
0.000000
  0
LINE
  8
1
 10
-25.863367
 20
-6.274084
 30
0.000000
 11
-25.758410
 21
-6.300529
 31
0.000000
  0
LINE
  8
1
 10
-25.758410
 20
-6.300529
 30
0.000000
 11
-25.654964
 21
-6.325636
 31
0.000000
  0
LINE
  8
1
 10
-25.654964
 20
-6.325636
 30
0.000000
 11
-25.553047
 21
-6.349433
 31
0.000000
  0
LINE
  8
1
 10
-25.553047
 20
-6.349433
 30
0.000000
 11
-25.452671
 21
-6.371948
 31
0.000000
  0
LINE
  8
1
 10
-25.452671
 20
-6.371948
 30
0.000000
 11
-25.353853
 21
-6.393210
 31
0.000000
  0
LINE
  8
1
 10
-25.353853
 20
-6.393210
 30
0.000000
 11
-25.256605
 21
-6.413247
 31
0.000000
  0
LINE
  8
1
 10
-25.256605
 20
-6.413247
 30
0.000000
 11
-25.160940
 21
-6.432089
 31
0.000000
  0
LINE
  8
1
 10
-25.160940
 20
-6.432089
 30
0.000000
 11
-25.066872
 21
-6.449766
 31
0.000000
  0
LINE
  8
1
 10
-25.066872
 20
-6.449766
 30
0.000000
 11
-24.974417
 21
-6.466306
 31
0.000000
  0
LINE
  8
1
 10
-24.974417
 20
-6.466306
 30
0.000000
 11
-24.883581
 21
-6.481739
 31
0.000000
  0
LINE
  8
1
 10
-24.883581
 20
-6.481739
 30
0.000000
 11
-24.794384
 21
-6.496094
 31
0.000000
  0
LINE
  8
1
 10
-24.794384
 20
-6.496094
 30
0.000000
 11
-24.706831
 21
-6.509401
 31
0.000000
  0
LINE
  8
1
 10
-24.706831
 20
-6.509401
 30
0.000000
 11
-24.620937
 21
-6.521691
 31
0.000000
  0
LINE
  8
1
 10
-24.620937
 20
-6.521691
 30
0.000000
 11
-24.536715
 21
-6.532993
 31
0.000000
  0
LINE
  8
1
 10
-24.536715
 20
-6.532993
 30
0.000000
 11
-24.454170
 21
-6.543337
 31
0.000000
  0
LINE
  8
1
 10
-24.454170
 20
-6.543337
 30
0.000000
 11
-24.373316
 21
-6.552753
 31
0.000000
  0
LINE
  8
1
 10
-24.373316
 20
-6.552753
 30
0.000000
 11
-24.294159
 21
-6.561272
 31
0.000000
  0
LINE
  8
1
 10
-24.294159
 20
-6.561272
 30
0.000000
 11
-24.216713
 21
-6.568924
 31
0.000000
  0
LINE
  8
1
 10
-24.216713
 20
-6.568924
 30
0.000000
 11
-24.140985
 21
-6.575739
 31
0.000000
  0
LINE
  8
1
 10
-24.140985
 20
-6.575739
 30
0.000000
 11
-24.066986
 21
-6.581749
 31
0.000000
  0
LINE
  8
1
 10
-24.066986
 20
-6.581749
 30
0.000000
 11
-23.994719
 21
-6.586984
 31
0.000000
  0
LINE
  8
1
 10
-23.994719
 20
-6.586984
 30
0.000000
 11
-23.924194
 21
-6.591474
 31
0.000000
  0
LINE
  8
1
 10
-23.924194
 20
-6.591474
 30
0.000000
 11
-23.855419
 21
-6.595250
 31
0.000000
  0
LINE
  8
1
 10
-23.855419
 20
-6.595250
 30
0.000000
 11
-23.788401
 21
-6.598343
 31
0.000000
  0
LINE
  8
1
 10
-23.788401
 20
-6.598343
 30
0.000000
 11
-23.723148
 21
-6.600785
 31
0.000000
  0
LINE
  8
1
 10
-23.723148
 20
-6.600785
 30
0.000000
 11
-23.659662
 21
-6.602606
 31
0.000000
  0
LINE
  8
1
 10
-23.659662
 20
-6.602606
 30
0.000000
 11
-23.597954
 21
-6.603837
 31
0.000000
  0
LINE
  8
1
 10
-23.597954
 20
-6.603837
 30
0.000000
 11
-23.538025
 21
-6.604509
 31
0.000000
  0
LINE
  8
1
 10
-23.538025
 20
-6.604509
 30
0.000000
 11
-23.479881
 21
-6.604655
 31
0.000000
  0
LINE
  8
1
 10
-23.479881
 20
-6.604655
 30
0.000000
 11
-23.423529
 21
-6.604304
 31
0.000000
  0
LINE
  8
1
 10
-23.423529
 20
-6.604304
 30
0.000000
 11
-23.368967
 21
-6.603488
 31
0.000000
  0
LINE
  8
1
 10
-23.368967
 20
-6.603488
 30
0.000000
 11
-23.316206
 21
-6.602238
 31
0.000000
  0
LINE
  8
1
 10
-23.316206
 20
-6.602238
 30
0.000000
 11
-23.265247
 21
-6.600586
 31
0.000000
  0
LINE
  8
1
 10
-23.265247
 20
-6.600586
 30
0.000000
 11
-23.216089
 21
-6.598563
 31
0.000000
  0
LINE
  8
1
 10
-23.216089
 20
-6.598563
 30
0.000000
 11
-23.168737
 21
-6.596200
 31
0.000000
  0
LINE
  8
1
 10
-23.168737
 20
-6.596200
 30
0.000000
 11
-23.123196
 21
-6.593529
 31
0.000000
  0
LINE
  8
1
 10
-23.123196
 20
-6.593529
 30
0.000000
 11
-23.079464
 21
-6.590581
 31
0.000000
  0
LINE
  8
1
 10
-23.079464
 20
-6.590581
 30
0.000000
 11
-23.037542
 21
-6.587388
 31
0.000000
  0
LINE
  8
1
 10
-23.037542
 20
-6.587388
 30
0.000000
 11
-22.997435
 21
-6.583980
 31
0.000000
  0
LINE
  8
1
 10
-22.997435
 20
-6.583980
 30
0.000000
 11
-22.959139
 21
-6.580389
 31
0.000000
  0
LINE
  8
1
 10
-22.959139
 20
-6.580389
 30
0.000000
 11
-22.922653
 21
-6.576647
 31
0.000000
  0
LINE
  8
1
 10
-22.922653
 20
-6.576647
 30
0.000000
 11
-22.887981
 21
-6.572785
 31
0.000000
  0
LINE
  8
1
 10
-22.887981
 20
-6.572785
 30
0.000000
 11
-22.855122
 21
-6.568834
 31
0.000000
  0
LINE
  8
1
 10
-22.855122
 20
-6.568834
 30
0.000000
 11
-22.824070
 21
-6.564826
 31
0.000000
  0
LINE
  8
1
 10
-22.824070
 20
-6.564826
 30
0.000000
 11
-22.794828
 21
-6.560791
 31
0.000000
  0
LINE
  8
1
 10
-22.794828
 20
-6.560791
 30
0.000000
 11
-22.767393
 21
-6.556761
 31
0.000000
  0
LINE
  8
1
 10
-22.767393
 20
-6.556761
 30
0.000000
 11
-22.741762
 21
-6.552768
 31
0.000000
  0
LINE
  8
1
 10
-22.741762
 20
-6.552768
 30
0.000000
 11
-22.717932
 21
-6.548842
 31
0.000000
  0
LINE
  8
1
 10
-22.717932
 20
-6.548842
 30
0.000000
 11
-22.695898
 21
-6.545014
 31
0.000000
  0
LINE
  8
1
 10
-22.695898
 20
-6.545014
 30
0.000000
 11
-22.675659
 21
-6.541317
 31
0.000000
  0
LINE
  8
1
 10
-22.675659
 20
-6.541317
 30
0.000000
 11
-22.657209
 21
-6.537779
 31
0.000000
  0
LINE
  8
1
 10
-22.657209
 20
-6.537779
 30
0.000000
 11
-22.640547
 21
-6.534433
 31
0.000000
  0
LINE
  8
1
 10
-22.640547
 20
-6.534433
 30
0.000000
 11
-22.625666
 21
-6.531310
 31
0.000000
  0
LINE
  8
1
 10
-22.625666
 20
-6.531310
 30
0.000000
 11
-22.612558
 21
-6.528439
 31
0.000000
  0
LINE
  8
1
 10
-22.612558
 20
-6.528439
 30
0.000000
 11
-22.601219
 21
-6.525853
 31
0.000000
  0
LINE
  8
1
 10
-22.601219
 20
-6.525853
 30
0.000000
 11
-22.591646
 21
-6.523581
 31
0.000000
  0
LINE
  8
1
 10
-22.591646
 20
-6.523581
 30
0.000000
 11
-22.583830
 21
-6.521654
 31
0.000000
  0
LINE
  8
1
 10
-22.583830
 20
-6.521654
 30
0.000000
 11
-22.577763
 21
-6.520102
 31
0.000000
  0
LINE
  8
1
 10
-22.577763
 20
-6.520102
 30
0.000000
 11
-22.573441
 21
-6.518957
 31
0.000000
  0
LINE
  8
1
 10
-22.573441
 20
-6.518957
 30
0.000000
 11
-22.569990
 21
-6.518003
 31
0.000000
  0
LINE
  8
1
 10
-22.569990
 20
-6.518003
 30
0.000000
 11
-21.616634
 21
-6.242683
 31
0.000000
  0
LINE
  8
1
 10
-21.616634
 20
-6.242683
 30
0.000000
 11
-20.919975
 21
-8.282794
 31
0.000000
  0
LINE
  8
1
 10
-20.919975
 20
-8.282794
 30
0.000000
 11
-21.842607
 21
-8.648088
 31
0.000000
  0
LINE
  8
1
 10
-21.842607
 20
-8.648088
 30
0.000000
 11
-21.845919
 21
-8.649445
 31
0.000000
  0
LINE
  8
1
 10
-21.845919
 20
-8.649445
 30
0.000000
 11
-21.850039
 21
-8.651182
 31
0.000000
  0
LINE
  8
1
 10
-21.850039
 20
-8.651182
 30
0.000000
 11
-21.855787
 21
-8.653666
 31
0.000000
  0
LINE
  8
1
 10
-21.855787
 20
-8.653666
 30
0.000000
 11
-21.863150
 21
-8.656922
 31
0.000000
  0
LINE
  8
1
 10
-21.863150
 20
-8.656922
 30
0.000000
 11
-21.872114
 21
-8.660980
 31
0.000000
  0
LINE
  8
1
 10
-21.872114
 20
-8.660980
 30
0.000000
 11
-21.882666
 21
-8.665868
 31
0.000000
  0
LINE
  8
1
 10
-21.882666
 20
-8.665868
 30
0.000000
 11
-21.894791
 21
-8.671615
 31
0.000000
  0
LINE
  8
1
 10
-21.894791
 20
-8.671615
 30
0.000000
 11
-21.908474
 21
-8.678246
 31
0.000000
  0
LINE
  8
1
 10
-21.908474
 20
-8.678246
 30
0.000000
 11
-21.923704
 21
-8.685790
 31
0.000000
  0
LINE
  8
1
 10
-21.923704
 20
-8.685790
 30
0.000000
 11
-21.940464
 21
-8.694276
 31
0.000000
  0
LINE
  8
1
 10
-21.940464
 20
-8.694276
 30
0.000000
 11
-21.958736
 21
-8.703730
 31
0.000000
  0
LINE
  8
1
 10
-21.958736
 20
-8.703730
 30
0.000000
 11
-21.978510
 21
-8.714177
 31
0.000000
  0
LINE
  8
1
 10
-21.978510
 20
-8.714177
 30
0.000000
 11
-21.999765
 21
-8.725648
 31
0.000000
  0
LINE
  8
1
 10
-21.999765
 20
-8.725648
 30
0.000000
 11
-22.022484
 21
-8.738165
 31
0.000000
  0
LINE
  8
1
 10
-22.022484
 20
-8.738165
 30
0.000000
 11
-22.046656
 21
-8.751759
 31
0.000000
  0
LINE
  8
1
 10
-22.046656
 20
-8.751759
 30
0.000000
 11
-22.072256
 21
-8.766452
 31
0.000000
  0
LINE
  8
1
 10
-22.072256
 20
-8.766452
 30
0.000000
 11
-22.099274
 21
-8.782273
 31
0.000000
  0
LINE
  8
1
 10
-22.099274
 20
-8.782273
 30
0.000000
 11
-22.127687
 21
-8.799246
 31
0.000000
  0
LINE
  8
1
 10
-22.127687
 20
-8.799246
 30
0.000000
 11
-22.157478
 21
-8.817396
 31
0.000000
  0
LINE
  8
1
 10
-22.157478
 20
-8.817396
 30
0.000000
 11
-22.188633
 21
-8.836751
 31
0.000000
  0
LINE
  8
1
 10
-22.188633
 20
-8.836751
 30
0.000000
 11
-22.221127
 21
-8.857334
 31
0.000000
  0
LINE
  8
1
 10
-22.221127
 20
-8.857334
 30
0.000000
 11
-22.254942
 21
-8.879170
 31
0.000000
  0
LINE
  8
1
 10
-22.254942
 20
-8.879170
 30
0.000000
 11
-22.290060
 21
-8.902285
 31
0.000000
  0
LINE
  8
1
 10
-22.290060
 20
-8.902285
 30
0.000000
 11
-22.326462
 21
-8.926701
 31
0.000000
  0
LINE
  8
1
 10
-22.326462
 20
-8.926701
 30
0.000000
 11
-22.364124
 21
-8.952442
 31
0.000000
  0
LINE
  8
1
 10
-22.364124
 20
-8.952442
 30
0.000000
 11
-22.403032
 21
-8.979535
 31
0.000000
  0
LINE
  8
1
 10
-22.403032
 20
-8.979535
 30
0.000000
 11
-22.443159
 21
-9.008001
 31
0.000000
  0
LINE
  8
1
 10
-22.443159
 20
-9.008001
 30
0.000000
 11
-22.484486
 21
-9.037864
 31
0.000000
  0
LINE
  8
1
 10
-22.484486
 20
-9.037864
 30
0.000000
 11
-22.526991
 21
-9.069146
 31
0.000000
  0
LINE
  8
1
 10
-22.526991
 20
-9.069146
 30
0.000000
 11
-22.570656
 21
-9.101871
 31
0.000000
  0
LINE
  8
1
 10
-22.570656
 20
-9.101871
 30
0.000000
 11
-22.615452
 21
-9.136062
 31
0.000000
  0
LINE
  8
1
 10
-22.615452
 20
-9.136062
 30
0.000000
 11
-22.661364
 21
-9.171740
 31
0.000000
  0
LINE
  8
1
 10
-22.661364
 20
-9.171740
 30
0.000000
 11
-22.708364
 21
-9.208926
 31
0.000000
  0
LINE
  8
1
 10
-22.708364
 20
-9.208926
 30
0.000000
 11
-22.756432
 21
-9.247644
 31
0.000000
  0
LINE
  8
1
 10
-22.756432
 20
-9.247644
 30
0.000000
 11
-22.805544
 21
-9.287915
 31
0.000000
  0
LINE
  8
1
 10
-22.805544
 20
-9.287915
 30
0.000000
 11
-22.855675
 21
-9.329759
 31
0.000000
  0
LINE
  8
1
 10
-22.855675
 20
-9.329759
 30
0.000000
 11
-22.906801
 21
-9.373197
 31
0.000000
  0
LINE
  8
1
 10
-22.906801
 20
-9.373197
 30
0.000000
 11
-22.958902
 21
-9.418249
 31
0.000000
  0
LINE
  8
1
 10
-22.958902
 20
-9.418249
 30
0.000000
 11
-23.011950
 21
-9.464937
 31
0.000000
  0
LINE
  8
1
 10
-23.011950
 20
-9.464937
 30
0.000000
 11
-23.065922
 21
-9.513279
 31
0.000000
  0
LINE
  8
1
 10
-23.065922
 20
-9.513279
 30
0.000000
 11
-23.120790
 21
-9.563295
 31
0.000000
  0
LINE
  8
1
 10
-23.120790
 20
-9.563295
 30
0.000000
 11
-23.176533
 21
-9.615005
 31
0.000000
  0
LINE
  8
1
 10
-23.176533
 20
-9.615005
 30
0.000000
 11
-23.233124
 21
-9.668428
 31
0.000000
  0
LINE
  8
1
 10
-23.233124
 20
-9.668428
 30
0.000000
 11
-23.290537
 21
-9.723583
 31
0.000000
  0
LINE
  8
1
 10
-23.290537
 20
-9.723583
 30
0.000000
 11
-23.348743
 21
-9.780487
 31
0.000000
  0
LINE
  8
1
 10
-23.348743
 20
-9.780487
 30
0.000000
 11
-23.407721
 21
-9.839157
 31
0.000000
  0
LINE
  8
1
 10
-23.407721
 20
-9.839157
 30
0.000000
 11
-23.467440
 21
-9.899613
 31
0.000000
  0
LINE
  8
1
 10
-23.467440
 20
-9.899613
 30
0.000000
 11
-23.527876
 21
-9.961872
 31
0.000000
  0
LINE
  8
1
 10
-23.527876
 20
-9.961872
 30
0.000000
 11
-23.589005
 21
-10.025950
 31
0.000000
  0
LINE
  8
1
 10
-23.589005
 20
-10.025950
 30
0.000000
 11
-23.650791
 21
-10.091865
 31
0.000000
  0
LINE
  8
1
 10
-23.650791
 20
-10.091865
 30
0.000000
 11
-23.713215
 21
-10.159633
 31
0.000000
  0
LINE
  8
1
 10
-23.713215
 20
-10.159633
 30
0.000000
 11
-23.776241
 21
-10.229267
 31
0.000000
  0
LINE
  8
1
 10
-23.776241
 20
-10.229267
 30
0.000000
 11
-23.839851
 21
-10.300787
 31
0.000000
  0
LINE
  8
1
 10
-23.839851
 20
-10.300787
 30
0.000000
 11
-23.904011
 21
-10.374207
 31
0.000000
  0
LINE
  8
1
 10
-23.904011
 20
-10.374207
 30
0.000000
 11
-23.968693
 21
-10.449540
 31
0.000000
  0
LINE
  8
1
 10
-23.968693
 20
-10.449540
 30
0.000000
 11
-24.033865
 21
-10.526803
 31
0.000000
  0
LINE
  8
1
 10
-24.033865
 20
-10.526803
 30
0.000000
 11
-24.099506
 21
-10.606009
 31
0.000000
  0
LINE
  8
1
 10
-24.099506
 20
-10.606009
 30
0.000000
 11
-24.165581
 21
-10.687172
 31
0.000000
  0
LINE
  8
1
 10
-24.165581
 20
-10.687172
 30
0.000000
 11
-24.232063
 21
-10.770306
 31
0.000000
  0
LINE
  8
1
 10
-24.232063
 20
-10.770306
 30
0.000000
 11
-24.298923
 21
-10.855424
 31
0.000000
  0
LINE
  8
1
 10
-24.298923
 20
-10.855424
 30
0.000000
 11
-24.366129
 21
-10.942537
 31
0.000000
  0
LINE
  8
1
 10
-24.366129
 20
-10.942537
 30
0.000000
 11
-24.433653
 21
-11.031661
 31
0.000000
  0
LINE
  8
1
 10
-24.433653
 20
-11.031661
 30
0.000000
 11
-24.501465
 21
-11.122807
 31
0.000000
  0
LINE
  8
1
 10
-24.501465
 20
-11.122807
 30
0.000000
 11
-24.563768
 21
-11.208091
 31
0.000000
  0
LINE
  8
1
 10
-24.563768
 20
-11.208091
 30
0.000000
 11
-23.931498
 21
-12.501338
 31
0.000000
  0
LINE
  8
1
 10
-23.931498
 20
-12.501338
 30
0.000000
 11
-23.825928
 21
-12.504550
 31
0.000000
  0
LINE
  8
1
 10
-23.825928
 20
-12.504550
 30
0.000000
 11
-23.712351
 21
-12.507012
 31
0.000000
  0
LINE
  8
1
 10
-23.712351
 20
-12.507012
 30
0.000000
 11
-23.600546
 21
-12.508462
 31
0.000000
  0
LINE
  8
1
 10
-23.600546
 20
-12.508462
 30
0.000000
 11
-23.490522
 21
-12.508928
 31
0.000000
  0
LINE
  8
1
 10
-23.490522
 20
-12.508928
 30
0.000000
 11
-23.382286
 21
-12.508441
 31
0.000000
  0
LINE
  8
1
 10
-23.382286
 20
-12.508441
 30
0.000000
 11
-23.275846
 21
-12.507033
 31
0.000000
  0
LINE
  8
1
 10
-23.275846
 20
-12.507033
 30
0.000000
 11
-23.171215
 21
-12.504737
 31
0.000000
  0
LINE
  8
1
 10
-23.171215
 20
-12.504737
 30
0.000000
 11
-23.068392
 21
-12.501581
 31
0.000000
  0
LINE
  8
1
 10
-23.068392
 20
-12.501581
 30
0.000000
 11
-22.967392
 21
-12.497601
 31
0.000000
  0
LINE
  8
1
 10
-22.967392
 20
-12.497601
 30
0.000000
 11
-22.868214
 21
-12.492824
 31
0.000000
  0
LINE
  8
1
 10
-22.868214
 20
-12.492824
 30
0.000000
 11
-22.770868
 21
-12.487283
 31
0.000000
  0
LINE
  8
1
 10
-22.770868
 20
-12.487283
 30
0.000000
 11
-22.675360
 21
-12.481010
 31
0.000000
  0
LINE
  8
1
 10
-22.675360
 20
-12.481010
 30
0.000000
 11
-22.581697
 21
-12.474038
 31
0.000000
  0
LINE
  8
1
 10
-22.581697
 20
-12.474038
 30
0.000000
 11
-22.489878
 21
-12.466396
 31
0.000000
  0
LINE
  8
1
 10
-22.489878
 20
-12.466396
 30
0.000000
 11
-22.399912
 21
-12.458118
 31
0.000000
  0
LINE
  8
1
 10
-22.399912
 20
-12.458118
 30
0.000000
 11
-22.311800
 21
-12.449234
 31
0.000000
  0
LINE
  8
1
 10
-22.311800
 20
-12.449234
 30
0.000000
 11
-22.225550
 21
-12.439777
 31
0.000000
  0
LINE
  8
1
 10
-22.225550
 20
-12.439777
 30
0.000000
 11
-22.141161
 21
-12.429778
 31
0.000000
  0
LINE
  8
1
 10
-22.141161
 20
-12.429778
 30
0.000000
 11
-22.058638
 21
-12.419270
 31
0.000000
  0
LINE
  8
1
 10
-22.058638
 20
-12.419270
 30
0.000000
 11
-21.977982
 21
-12.408282
 31
0.000000
  0
LINE
  8
1
 10
-21.977982
 20
-12.408282
 30
0.000000
 11
-21.899195
 21
-12.396848
 31
0.000000
  0
LINE
  8
1
 10
-21.899195
 20
-12.396848
 30
0.000000
 11
-21.822277
 21
-12.384999
 31
0.000000
  0
LINE
  8
1
 10
-21.822277
 20
-12.384999
 30
0.000000
 11
-21.747234
 21
-12.372768
 31
0.000000
  0
LINE
  8
1
 10
-21.747234
 20
-12.372768
 30
0.000000
 11
-21.674065
 21
-12.360186
 31
0.000000
  0
LINE
  8
1
 10
-21.674065
 20
-12.360186
 30
0.000000
 11
-21.602766
 21
-12.347283
 31
0.000000
  0
LINE
  8
1
 10
-21.602766
 20
-12.347283
 30
0.000000
 11
-21.533340
 21
-12.334094
 31
0.000000
  0
LINE
  8
1
 10
-21.533340
 20
-12.334094
 30
0.000000
 11
-21.465788
 21
-12.320647
 31
0.000000
  0
LINE
  8
1
 10
-21.465788
 20
-12.320647
 30
0.000000
 11
-21.400106
 21
-12.306977
 31
0.000000
  0
LINE
  8
1
 10
-21.400106
 20
-12.306977
 30
0.000000
 11
-21.336296
 21
-12.293115
 31
0.000000
  0
LINE
  8
1
 10
-21.336296
 20
-12.293115
 30
0.000000
 11
-21.274351
 21
-12.279090
 31
0.000000
  0
LINE
  8
1
 10
-21.274351
 20
-12.279090
 30
0.000000
 11
-21.214275
 21
-12.264936
 31
0.000000
  0
LINE
  8
1
 10
-21.214275
 20
-12.264936
 30
0.000000
 11
-21.156061
 21
-12.250684
 31
0.000000
  0
LINE
  8
1
 10
-21.156061
 20
-12.250684
 30
0.000000
 11
-21.099709
 21
-12.236365
 31
0.000000
  0
LINE
  8
1
 10
-21.099709
 20
-12.236365
 30
0.000000
 11
-21.045214
 21
-12.222011
 31
0.000000
  0
LINE
  8
1
 10
-21.045214
 20
-12.222011
 30
0.000000
 11
-20.992571
 21
-12.207652
 31
0.000000
  0
LINE
  8
1
 10
-20.992571
 20
-12.207652
 30
0.000000
 11
-20.941776
 21
-12.193320
 31
0.000000
  0
LINE
  8
1
 10
-20.941776
 20
-12.193320
 30
0.000000
 11
-20.892828
 21
-12.179047
 31
0.000000
  0
LINE
  8
1
 10
-20.892828
 20
-12.179047
 30
0.000000
 11
-20.845718
 21
-12.164863
 31
0.000000
  0
LINE
  8
1
 10
-20.845718
 20
-12.164863
 30
0.000000
 11
-20.800444
 21
-12.150798
 31
0.000000
  0
LINE
  8
1
 10
-20.800444
 20
-12.150798
 30
0.000000
 11
-20.756996
 21
-12.136885
 31
0.000000
  0
LINE
  8
1
 10
-20.756996
 20
-12.136885
 30
0.000000
 11
-20.715370
 21
-12.123154
 31
0.000000
  0
LINE
  8
1
 10
-20.715370
 20
-12.123154
 30
0.000000
 11
-20.675562
 21
-12.109635
 31
0.000000
  0
LINE
  8
1
 10
-20.675562
 20
-12.109635
 30
0.000000
 11
-20.637560
 21
-12.096359
 31
0.000000
  0
LINE
  8
1
 10
-20.637560
 20
-12.096359
 30
0.000000
 11
-20.601360
 21
-12.083359
 31
0.000000
  0
LINE
  8
1
 10
-20.601360
 20
-12.083359
 30
0.000000
 11
-20.566952
 21
-12.070660
 31
0.000000
  0
LINE
  8
1
 10
-20.566952
 20
-12.070660
 30
0.000000
 11
-20.534330
 21
-12.058297
 31
0.000000
  0
LINE
  8
1
 10
-20.534330
 20
-12.058297
 30
0.000000
 11
-20.503487
 21
-12.046299
 31
0.000000
  0
LINE
  8
1
 10
-20.503487
 20
-12.046299
 30
0.000000
 11
-20.474407
 21
-12.034694
 31
0.000000
  0
LINE
  8
1
 10
-20.474407
 20
-12.034694
 30
0.000000
 11
-20.447086
 21
-12.023514
 31
0.000000
  0
LINE
  8
1
 10
-20.447086
 20
-12.023514
 30
0.000000
 11
-20.421515
 21
-12.012788
 31
0.000000
  0
LINE
  8
1
 10
-20.421515
 20
-12.012788
 30
0.000000
 11
-20.397682
 21
-12.002546
 31
0.000000
  0
LINE
  8
1
 10
-20.397682
 20
-12.002546
 30
0.000000
 11
-20.375576
 21
-11.992817
 31
0.000000
  0
LINE
  8
1
 10
-20.375576
 20
-11.992817
 30
0.000000
 11
-20.355188
 21
-11.983630
 31
0.000000
  0
LINE
  8
1
 10
-20.355188
 20
-11.983630
 30
0.000000
 11
-20.336504
 21
-11.975015
 31
0.000000
  0
LINE
  8
1
 10
-20.336504
 20
-11.975015
 30
0.000000
 11
-20.319513
 21
-11.967000
 31
0.000000
  0
LINE
  8
1
 10
-20.319513
 20
-11.967000
 30
0.000000
 11
-20.304207
 21
-11.959616
 31
0.000000
  0
LINE
  8
1
 10
-20.304207
 20
-11.959616
 30
0.000000
 11
-20.290569
 21
-11.952889
 31
0.000000
  0
LINE
  8
1
 10
-20.290569
 20
-11.952889
 30
0.000000
 11
-20.278587
 21
-11.946849
 31
0.000000
  0
LINE
  8
1
 10
-20.278587
 20
-11.946849
 30
0.000000
 11
-20.268250
 21
-11.941525
 31
0.000000
  0
LINE
  8
1
 10
-20.268250
 20
-11.941525
 30
0.000000
 11
-20.259541
 21
-11.936943
 31
0.000000
  0
LINE
  8
1
 10
-20.259541
 20
-11.936943
 30
0.000000
 11
-20.252451
 21
-11.933133
 31
0.000000
  0
LINE
  8
1
 10
-20.252451
 20
-11.933133
 30
0.000000
 11
-20.246960
 21
-11.930120
 31
0.000000
  0
LINE
  8
1
 10
-20.246960
 20
-11.930120
 30
0.000000
 11
-20.243057
 21
-11.927937
 31
0.000000
  0
LINE
  8
1
 10
-20.243057
 20
-11.927937
 30
0.000000
 11
-20.239954
 21
-11.926156
 31
0.000000
  0
LINE
  8
1
 10
-20.239954
 20
-11.926156
 30
0.000000
 11
-19.385017
 21
-11.422395
 31
0.000000
  0
LINE
  8
1
 10
-19.385017
 20
-11.422395
 30
0.000000
 11
-18.202888
 21
-13.225159
 31
0.000000
  0
LINE
  8
1
 10
-18.202888
 20
-13.225159
 30
0.000000
 11
-19.005690
 21
-13.808427
 31
0.000000
  0
LINE
  8
1
 10
-19.005690
 20
-13.808427
 30
0.000000
 11
-19.008560
 21
-13.810563
 31
0.000000
  0
LINE
  8
1
 10
-19.008560
 20
-13.810563
 30
0.000000
 11
-19.012119
 21
-13.813272
 31
0.000000
  0
LINE
  8
1
 10
-19.012119
 20
-13.813272
 30
0.000000
 11
-19.017071
 21
-13.817106
 31
0.000000
  0
LINE
  8
1
 10
-19.017071
 20
-13.817106
 30
0.000000
 11
-19.023390
 21
-13.822091
 31
0.000000
  0
LINE
  8
1
 10
-19.023390
 20
-13.822091
 30
0.000000
 11
-19.031063
 21
-13.828251
 31
0.000000
  0
LINE
  8
1
 10
-19.031063
 20
-13.828251
 30
0.000000
 11
-19.040068
 21
-13.835609
 31
0.000000
  0
LINE
  8
1
 10
-19.040068
 20
-13.835609
 30
0.000000
 11
-19.050385
 21
-13.844191
 31
0.000000
  0
LINE
  8
1
 10
-19.050385
 20
-13.844191
 30
0.000000
 11
-19.061989
 21
-13.854016
 31
0.000000
  0
LINE
  8
1
 10
-19.061989
 20
-13.854016
 30
0.000000
 11
-19.074863
 21
-13.865111
 31
0.000000
  0
LINE
  8
1
 10
-19.074863
 20
-13.865111
 30
0.000000
 11
-19.088985
 21
-13.877499
 31
0.000000
  0
LINE
  8
1
 10
-19.088985
 20
-13.877499
 30
0.000000
 11
-19.104334
 21
-13.891199
 31
0.000000
  0
LINE
  8
1
 10
-19.104334
 20
-13.891199
 30
0.000000
 11
-19.120888
 21
-13.906237
 31
0.000000
  0
LINE
  8
1
 10
-19.120888
 20
-13.906237
 30
0.000000
 11
-19.138622
 21
-13.922632
 31
0.000000
  0
LINE
  8
1
 10
-19.138622
 20
-13.922632
 30
0.000000
 11
-19.157515
 21
-13.940407
 31
0.000000
  0
LINE
  8
1
 10
-19.157515
 20
-13.940407
 30
0.000000
 11
-19.177546
 21
-13.959583
 31
0.000000
  0
LINE
  8
1
 10
-19.177546
 20
-13.959583
 30
0.000000
 11
-19.198689
 21
-13.980183
 31
0.000000
  0
LINE
  8
1
 10
-19.198689
 20
-13.980183
 30
0.000000
 11
-19.220924
 21
-14.002226
 31
0.000000
  0
LINE
  8
1
 10
-19.220924
 20
-14.002226
 30
0.000000
 11
-19.244223
 21
-14.025731
 31
0.000000
  0
LINE
  8
1
 10
-19.244223
 20
-14.025731
 30
0.000000
 11
-19.268564
 21
-14.050720
 31
0.000000
  0
LINE
  8
1
 10
-19.268564
 20
-14.050720
 30
0.000000
 11
-19.293926
 21
-14.077215
 31
0.000000
  0
LINE
  8
1
 10
-19.293926
 20
-14.077215
 30
0.000000
 11
-19.320280
 21
-14.105232
 31
0.000000
  0
LINE
  8
1
 10
-19.320280
 20
-14.105232
 30
0.000000
 11
-19.347603
 21
-14.134792
 31
0.000000
  0
LINE
  8
1
 10
-19.347603
 20
-14.134792
 30
0.000000
 11
-19.375870
 21
-14.165913
 31
0.000000
  0
LINE
  8
1
 10
-19.375870
 20
-14.165913
 30
0.000000
 11
-19.405056
 21
-14.198615
 31
0.000000
  0
LINE
  8
1
 10
-19.405056
 20
-14.198615
 30
0.000000
 11
-19.435133
 21
-14.232915
 31
0.000000
  0
LINE
  8
1
 10
-19.435133
 20
-14.232915
 30
0.000000
 11
-19.466080
 21
-14.268832
 31
0.000000
  0
LINE
  8
1
 10
-19.466080
 20
-14.268832
 30
0.000000
 11
-19.497868
 21
-14.306383
 31
0.000000
  0
LINE
  8
1
 10
-19.497868
 20
-14.306383
 30
0.000000
 11
-19.530470
 21
-14.345584
 31
0.000000
  0
LINE
  8
1
 10
-19.530470
 20
-14.345584
 30
0.000000
 11
-19.563860
 21
-14.386455
 31
0.000000
  0
LINE
  8
1
 10
-19.563860
 20
-14.386455
 30
0.000000
 11
-19.598015
 21
-14.429011
 31
0.000000
  0
LINE
  8
1
 10
-19.598015
 20
-14.429011
 30
0.000000
 11
-19.632902
 21
-14.473268
 31
0.000000
  0
LINE
  8
1
 10
-19.632902
 20
-14.473268
 30
0.000000
 11
-19.668497
 21
-14.519241
 31
0.000000
  0
LINE
  8
1
 10
-19.668497
 20
-14.519241
 30
0.000000
 11
-19.704773
 21
-14.566950
 31
0.000000
  0
LINE
  8
1
 10
-19.704773
 20
-14.566950
 30
0.000000
 11
-19.741701
 21
-14.616405
 31
0.000000
  0
LINE
  8
1
 10
-19.741701
 20
-14.616405
 30
0.000000
 11
-19.779255
 21
-14.667624
 31
0.000000
  0
LINE
  8
1
 10
-19.779255
 20
-14.667624
 30
0.000000
 11
-19.817406
 21
-14.720620
 31
0.000000
  0
LINE
  8
1
 10
-19.817406
 20
-14.720620
 30
0.000000
 11
-19.856125
 21
-14.775408
 31
0.000000
  0
LINE
  8
1
 10
-19.856125
 20
-14.775408
 30
0.000000
 11
-19.895384
 21
-14.832003
 31
0.000000
  0
LINE
  8
1
 10
-19.895384
 20
-14.832003
 30
0.000000
 11
-19.935154
 21
-14.890415
 31
0.000000
  0
LINE
  8
1
 10
-19.935154
 20
-14.890415
 30
0.000000
 11
-19.975409
 21
-14.950662
 31
0.000000
  0
LINE
  8
1
 10
-19.975409
 20
-14.950662
 30
0.000000
 11
-20.016115
 21
-15.012752
 31
0.000000
  0
LINE
  8
1
 10
-20.016115
 20
-15.012752
 30
0.000000
 11
-20.057245
 21
-15.076700
 31
0.000000
  0
LINE
  8
1
 10
-20.057245
 20
-15.076700
 30
0.000000
 11
-20.098772
 21
-15.142518
 31
0.000000
  0
LINE
  8
1
 10
-20.098772
 20
-15.142518
 30
0.000000
 11
-20.140665
 21
-15.210217
 31
0.000000
  0
LINE
  8
1
 10
-20.140665
 20
-15.210217
 30
0.000000
 11
-20.182892
 21
-15.279809
 31
0.000000
  0
LINE
  8
1
 10
-20.182892
 20
-15.279809
 30
0.000000
 11
-20.225426
 21
-15.351303
 31
0.000000
  0
LINE
  8
1
 10
-20.225426
 20
-15.351303
 30
0.000000
 11
-20.268234
 21
-15.424712
 31
0.000000
  0
LINE
  8
1
 10
-20.268234
 20
-15.424712
 30
0.000000
 11
-20.311289
 21
-15.500045
 31
0.000000
  0
LINE
  8
1
 10
-20.311289
 20
-15.500045
 30
0.000000
 11
-20.354561
 21
-15.577312
 31
0.000000
  0
LINE
  8
1
 10
-20.354561
 20
-15.577312
 30
0.000000
 11
-20.398014
 21
-15.656521
 31
0.000000
  0
LINE
  8
1
 10
-20.398014
 20
-15.656521
 30
0.000000
 11
-20.441624
 21
-15.737683
 31
0.000000
  0
LINE
  8
1
 10
-20.441624
 20
-15.737683
 30
0.000000
 11
-20.485353
 21
-15.820805
 31
0.000000
  0
LINE
  8
1
 10
-20.485353
 20
-15.820805
 30
0.000000
 11
-20.529177
 21
-15.905897
 31
0.000000
  0
LINE
  8
1
 10
-20.529177
 20
-15.905897
 30
0.000000
 11
-20.573063
 21
-15.992966
 31
0.000000
  0
LINE
  8
1
 10
-20.573063
 20
-15.992966
 30
0.000000
 11
-20.616978
 21
-16.082018
 31
0.000000
  0
LINE
  8
1
 10
-20.616978
 20
-16.082018
 30
0.000000
 11
-20.660889
 21
-16.173061
 31
0.000000
  0
LINE
  8
1
 10
-20.660889
 20
-16.173061
 30
0.000000
 11
-20.704769
 21
-16.266104
 31
0.000000
  0
LINE
  8
1
 10
-20.704769
 20
-16.266104
 30
0.000000
 11
-20.748583
 21
-16.361147
 31
0.000000
  0
LINE
  8
1
 10
-20.748583
 20
-16.361147
 30
0.000000
 11
-20.792303
 21
-16.458204
 31
0.000000
  0
LINE
  8
1
 10
-20.792303
 20
-16.458204
 30
0.000000
 11
-20.835896
 21
-16.557276
 31
0.000000
  0
LINE
  8
1
 10
-20.835896
 20
-16.557276
 30
0.000000
 11
-20.879324
 21
-16.658365
 31
0.000000
  0
LINE
  8
1
 10
-20.879324
 20
-16.658365
 30
0.000000
 11
-20.922564
 21
-16.761480
 31
0.000000
  0
LINE
  8
1
 10
-20.922564
 20
-16.761480
 30
0.000000
 11
-20.965578
 21
-16.866627
 31
0.000000
  0
LINE
  8
1
 10
-20.965578
 20
-16.866627
 30
0.000000
 11
-21.004715
 21
-16.964727
 31
0.000000
  0
LINE
  8
1
 10
-21.004715
 20
-16.964727
 30
0.000000
 11
-20.070690
 21
-18.060104
 31
0.000000
  0
LINE
  8
1
 10
-20.070690
 20
-18.060104
 30
0.000000
 11
-19.967638
 21
-18.036963
 31
0.000000
  0
LINE
  8
1
 10
-19.967638
 20
-18.036963
 30
0.000000
 11
-19.857018
 21
-18.011103
 31
0.000000
  0
LINE
  8
1
 10
-19.857018
 20
-18.011103
 30
0.000000
 11
-19.748363
 21
-17.984701
 31
0.000000
  0
LINE
  8
1
 10
-19.748363
 20
-17.984701
 30
0.000000
 11
-19.641682
 21
-17.957790
 31
0.000000
  0
LINE
  8
1
 10
-19.641682
 20
-17.957790
 30
0.000000
 11
-19.536966
 21
-17.930403
 31
0.000000
  0
LINE
  8
1
 10
-19.536966
 20
-17.930403
 30
0.000000
 11
-19.434221
 21
-17.902567
 31
0.000000
  0
LINE
  8
1
 10
-19.434221
 20
-17.902567
 30
0.000000
 11
-19.333447
 21
-17.874323
 31
0.000000
  0
LINE
  8
1
 10
-19.333447
 20
-17.874323
 30
0.000000
 11
-19.234640
 21
-17.845695
 31
0.000000
  0
LINE
  8
1
 10
-19.234640
 20
-17.845695
 30
0.000000
 11
-19.137802
 21
-17.816721
 31
0.000000
  0
LINE
  8
1
 10
-19.137802
 20
-17.816721
 30
0.000000
 11
-19.042929
 21
-17.787430
 31
0.000000
  0
LINE
  8
1
 10
-19.042929
 20
-17.787430
 30
0.000000
 11
-18.950020
 21
-17.757854
 31
0.000000
  0
LINE
  8
1
 10
-18.950020
 20
-17.757854
 30
0.000000
 11
-18.859072
 21
-17.728027
 31
0.000000
  0
LINE
  8
1
 10
-18.859072
 20
-17.728027
 30
0.000000
 11
-18.770084
 21
-17.697981
 31
0.000000
  0
LINE
  8
1
 10
-18.770084
 20
-17.697981
 30
0.000000
 11
-18.683050
 21
-17.667746
 31
0.000000
  0
LINE
  8
1
 10
-18.683050
 20
-17.667746
 30
0.000000
 11
-18.597971
 21
-17.637354
 31
0.000000
  0
LINE
  8
1
 10
-18.597971
 20
-17.637354
 30
0.000000
 11
-18.514837
 21
-17.606836
 31
0.000000
  0
LINE
  8
1
 10
-18.514837
 20
-17.606836
 30
0.000000
 11
-18.433647
 21
-17.576227
 31
0.000000
  0
LINE
  8
1
 10
-18.433647
 20
-17.576227
 30
0.000000
 11
-18.354397
 21
-17.545555
 31
0.000000
  0
LINE
  8
1
 10
-18.354397
 20
-17.545555
 30
0.000000
 11
-18.277079
 21
-17.514854
 31
0.000000
  0
LINE
  8
1
 10
-18.277079
 20
-17.514854
 30
0.000000
 11
-18.201689
 21
-17.484154
 31
0.000000
  0
LINE
  8
1
 10
-18.201689
 20
-17.484154
 30
0.000000
 11
-18.128222
 21
-17.453485
 31
0.000000
  0
LINE
  8
1
 10
-18.128222
 20
-17.453485
 30
0.000000
 11
-18.056667
 21
-17.422880
 31
0.000000
  0
LINE
  8
1
 10
-18.056667
 20
-17.422880
 30
0.000000
 11
-17.987024
 21
-17.392370
 31
0.000000
  0
LINE
  8
1
 10
-17.987024
 20
-17.392370
 30
0.000000
 11
-17.919281
 21
-17.361986
 31
0.000000
  0
LINE
  8
1
 10
-17.919281
 20
-17.361986
 30
0.000000
 11
-17.853432
 21
-17.331758
 31
0.000000
  0
LINE
  8
1
 10
-17.853432
 20
-17.331758
 30
0.000000
 11
-17.789467
 21
-17.301718
 31
0.000000
  0
LINE
  8
1
 10
-17.789467
 20
-17.301718
 30
0.000000
 11
-17.727381
 21
-17.271894
 31
0.000000
  0
LINE
  8
1
 10
-17.727381
 20
-17.271894
 30
0.000000
 11
-17.667162
 21
-17.242319
 31
0.000000
  0
LINE
  8
1
 10
-17.667162
 20
-17.242319
 30
0.000000
 11
-17.608805
 21
-17.213024
 31
0.000000
  0
LINE
  8
1
 10
-17.608805
 20
-17.213024
 30
0.000000
 11
-17.552294
 21
-17.184034
 31
0.000000
  0
LINE
  8
1
 10
-17.552294
 20
-17.184034
 30
0.000000
 11
-17.497625
 21
-17.155386
 31
0.000000
  0
LINE
  8
1
 10
-17.497625
 20
-17.155386
 30
0.000000
 11
-17.444784
 21
-17.127104
 31
0.000000
  0
LINE
  8
1
 10
-17.444784
 20
-17.127104
 30
0.000000
 11
-17.393763
 21
-17.099220
 31
0.000000
  0
LINE
  8
1
 10
-17.393763
 20
-17.099220
 30
0.000000
 11
-17.344549
 21
-17.071764
 31
0.000000
  0
LINE
  8
1
 10
-17.344549
 20
-17.071764
 30
0.000000
 11
-17.297131
 21
-17.044764
 31
0.000000
  0
LINE
  8
1
 10
-17.297131
 20
-17.044764
 30
0.000000
 11
-17.251497
 21
-17.018251
 31
0.000000
  0
LINE
  8
1
 10
-17.251497
 20
-17.018251
 30
0.000000
 11
-17.207638
 21
-16.992254
 31
0.000000
  0
LINE
  8
1
 10
-17.207638
 20
-16.992254
 30
0.000000
 11
-17.165535
 21
-16.966799
 31
0.000000
  0
LINE
  8
1
 10
-17.165535
 20
-16.966799
 30
0.000000
 11
-17.125179
 21
-16.941916
 31
0.000000
  0
LINE
  8
1
 10
-17.125179
 20
-16.941916
 30
0.000000
 11
-17.086557
 21
-16.917635
 31
0.000000
  0
LINE
  8
1
 10
-17.086557
 20
-16.917635
 30
0.000000
 11
-17.049654
 21
-16.893984
 31
0.000000
  0
LINE
  8
1
 10
-17.049654
 20
-16.893984
 30
0.000000
 11
-17.014458
 21
-16.870991
 31
0.000000
  0
LINE
  8
1
 10
-17.014458
 20
-16.870991
 30
0.000000
 11
-16.980951
 21
-16.848680
 31
0.000000
  0
LINE
  8
1
 10
-16.980951
 20
-16.848680
 30
0.000000
 11
-16.949123
 21
-16.827085
 31
0.000000
  0
LINE
  8
1
 10
-16.949123
 20
-16.827085
 30
0.000000
 11
-16.918953
 21
-16.806229
 31
0.000000
  0
LINE
  8
1
 10
-16.918953
 20
-16.806229
 30
0.000000
 11
-16.890430
 21
-16.786142
 31
0.000000
  0
LINE
  8
1
 10
-16.890430
 20
-16.786142
 30
0.000000
 11
-16.863539
 21
-16.766850
 31
0.000000
  0
LINE
  8
1
 10
-16.863539
 20
-16.766850
 30
0.000000
 11
-16.838261
 21
-16.748379
 31
0.000000
  0
LINE
  8
1
 10
-16.838261
 20
-16.748379
 30
0.000000
 11
-16.814579
 21
-16.730755
 31
0.000000
  0
LINE
  8
1
 10
-16.814579
 20
-16.730755
 30
0.000000
 11
-16.792477
 21
-16.714006
 31
0.000000
  0
LINE
  8
1
 10
-16.792477
 20
-16.714006
 30
0.000000
 11
-16.771940
 21
-16.698160
 31
0.000000
  0
LINE
  8
1
 10
-16.771940
 20
-16.698160
 30
0.000000
 11
-16.752949
 21
-16.683239
 31
0.000000
  0
LINE
  8
1
 10
-16.752949
 20
-16.683239
 30
0.000000
 11
-16.735485
 21
-16.669270
 31
0.000000
  0
LINE
  8
1
 10
-16.735485
 20
-16.669270
 30
0.000000
 11
-16.719532
 21
-16.656279
 31
0.000000
  0
LINE
  8
1
 10
-16.719532
 20
-16.656279
 30
0.000000
 11
-16.705069
 21
-16.644291
 31
0.000000
  0
LINE
  8
1
 10
-16.705069
 20
-16.644291
 30
0.000000
 11
-16.692078
 21
-16.633331
 31
0.000000
  0
LINE
  8
1
 10
-16.692078
 20
-16.633331
 30
0.000000
 11
-16.680542
 21
-16.623425
 31
0.000000
  0
LINE
  8
1
 10
-16.680542
 20
-16.623425
 30
0.000000
 11
-16.670439
 21
-16.614595
 31
0.000000
  0
LINE
  8
1
 10
-16.670439
 20
-16.614595
 30
0.000000
 11
-16.661749
 21
-16.606867
 31
0.000000
  0
LINE
  8
1
 10
-16.661749
 20
-16.606867
 30
0.000000
 11
-16.654455
 21
-16.600264
 31
0.000000
  0
LINE
  8
1
 10
-16.654455
 20
-16.600264
 30
0.000000
 11
-16.648533
 21
-16.594810
 31
0.000000
  0
LINE
  8
1
 10
-16.648533
 20
-16.594810
 30
0.000000
 11
-16.643965
 21
-16.590527
 31
0.000000
  0
LINE
  8
1
 10
-16.643965
 20
-16.590527
 30
0.000000
 11
-16.640728
 21
-16.587440
 31
0.000000
  0
LINE
  8
1
 10
-16.640728
 20
-16.587440
 30
0.000000
 11
-16.638165
 21
-16.584944
 31
0.000000
  0
LINE
  8
1
 10
-16.638165
 20
-16.584944
 30
0.000000
 11
-15.935369
 21
-15.884396
 31
0.000000
  0
LINE
  8
1
 10
-15.935369
 20
-15.884396
 30
0.000000
 11
-14.342051
 21
-17.336538
 31
0.000000
  0
LINE
  8
1
 10
-14.342051
 20
-17.336538
 30
0.000000
 11
-14.974577
 21
-18.101130
 31
0.000000
  0
LINE
  8
1
 10
-14.974577
 20
-18.101130
 30
0.000000
 11
-14.976826
 21
-18.103914
 31
0.000000
  0
LINE
  8
1
 10
-14.976826
 20
-18.103914
 30
0.000000
 11
-14.979599
 21
-18.107422
 31
0.000000
  0
LINE
  8
1
 10
-14.979599
 20
-18.107422
 30
0.000000
 11
-14.983440
 21
-18.112368
 31
0.000000
  0
LINE
  8
1
 10
-14.983440
 20
-18.112368
 30
0.000000
 11
-14.988323
 21
-18.118767
 31
0.000000
  0
LINE
  8
1
 10
-14.988323
 20
-18.118767
 30
0.000000
 11
-14.994224
 21
-18.126642
 31
0.000000
  0
LINE
  8
1
 10
-14.994224
 20
-18.126642
 30
0.000000
 11
-15.001115
 21
-18.136009
 31
0.000000
  0
LINE
  8
1
 10
-15.001115
 20
-18.136009
 30
0.000000
 11
-15.008973
 21
-18.146887
 31
0.000000
  0
LINE
  8
1
 10
-15.008973
 20
-18.146887
 30
0.000000
 11
-15.017769
 21
-18.159288
 31
0.000000
  0
LINE
  8
1
 10
-15.017769
 20
-18.159288
 30
0.000000
 11
-15.027480
 21
-18.173237
 31
0.000000
  0
LINE
  8
1
 10
-15.027480
 20
-18.173237
 30
0.000000
 11
-15.038079
 21
-18.188747
 31
0.000000
  0
LINE
  8
1
 10
-15.038079
 20
-18.188747
 30
0.000000
 11
-15.049538
 21
-18.205835
 31
0.000000
  0
LINE
  8
1
 10
-15.049538
 20
-18.205835
 30
0.000000
 11
-15.061831
 21
-18.224516
 31
0.000000
  0
LINE
  8
1
 10
-15.061831
 20
-18.224516
 30
0.000000
 11
-15.074931
 21
-18.244806
 31
0.000000
  0
LINE
  8
1
 10
-15.074931
 20
-18.244806
 30
0.000000
 11
-15.088810
 21
-18.266722
 31
0.000000
  0
LINE
  8
1
 10
-15.088810
 20
-18.266722
 30
0.000000
 11
-15.103442
 21
-18.290277
 31
0.000000
  0
LINE
  8
1
 10
-15.103442
 20
-18.290277
 30
0.000000
 11
-15.118798
 21
-18.315487
 31
0.000000
  0
LINE
  8
1
 10
-15.118798
 20
-18.315487
 30
0.000000
 11
-15.134852
 21
-18.342367
 31
0.000000
  0
LINE
  8
1
 10
-15.134852
 20
-18.342367
 30
0.000000
 11
-15.151574
 21
-18.370928
 31
0.000000
  0
LINE
  8
1
 10
-15.151574
 20
-18.370928
 30
0.000000
 11
-15.168937
 21
-18.401186
 31
0.000000
  0
LINE
  8
1
 10
-15.168937
 20
-18.401186
 30
0.000000
 11
-15.186913
 21
-18.433155
 31
0.000000
  0
LINE
  8
1
 10
-15.186913
 20
-18.433155
 30
0.000000
 11
-15.205471
 21
-18.466846
 31
0.000000
  0
LINE
  8
1
 10
-15.205471
 20
-18.466846
 30
0.000000
 11
-15.224585
 21
-18.502274
 31
0.000000
  0
LINE
  8
1
 10
-15.224585
 20
-18.502274
 30
0.000000
 11
-15.244224
 21
-18.539446
 31
0.000000
  0
LINE
  8
1
 10
-15.244224
 20
-18.539446
 30
0.000000
 11
-15.264359
 21
-18.578379
 31
0.000000
  0
LINE
  8
1
 10
-15.264359
 20
-18.578379
 30
0.000000
 11
-15.284963
 21
-18.619080
 31
0.000000
  0
LINE
  8
1
 10
-15.284963
 20
-18.619080
 30
0.000000
 11
-15.306005
 21
-18.661566
 31
0.000000
  0
LINE
  8
1
 10
-15.306005
 20
-18.661566
 30
0.000000
 11
-15.327456
 21
-18.705841
 31
0.000000
  0
LINE
  8
1
 10
-15.327456
 20
-18.705841
 30
0.000000
 11
-15.349284
 21
-18.751919
 31
0.000000
  0
LINE
  8
1
 10
-15.349284
 20
-18.751919
 30
0.000000
 11
-15.371462
 21
-18.799810
 31
0.000000
  0
LINE
  8
1
 10
-15.371462
 20
-18.799810
 30
0.000000
 11
-15.393959
 21
-18.849524
 31
0.000000
  0
LINE
  8
1
 10
-15.393959
 20
-18.849524
 30
0.000000
 11
-15.416744
 21
-18.901066
 31
0.000000
  0
LINE
  8
1
 10
-15.416744
 20
-18.901066
 30
0.000000
 11
-15.439788
 21
-18.954447
 31
0.000000
  0
LINE
  8
1
 10
-15.439788
 20
-18.954447
 30
0.000000
 11
-15.463060
 21
-19.009678
 31
0.000000
  0
LINE
  8
1
 10
-15.463060
 20
-19.009678
 30
0.000000
 11
-15.486529
 21
-19.066763
 31
0.000000
  0
LINE
  8
1
 10
-15.486529
 20
-19.066763
 30
0.000000
 11
-15.510166
 21
-19.125711
 31
0.000000
  0
LINE
  8
1
 10
-15.510166
 20
-19.125711
 30
0.000000
 11
-15.533937
 21
-19.186531
 31
0.000000
  0
LINE
  8
1
 10
-15.533937
 20
-19.186531
 30
0.000000
 11
-15.557815
 21
-19.249226
 31
0.000000
  0
LINE
  8
1
 10
-15.557815
 20
-19.249226
 30
0.000000
 11
-15.581767
 21
-19.313807
 31
0.000000
  0
LINE
  8
1
 10
-15.581767
 20
-19.313807
 30
0.000000
 11
-15.605761
 21
-19.380276
 31
0.000000
  0
LINE
  8
1
 10
-15.605761
 20
-19.380276
 30
0.000000
 11
-15.629767
 21
-19.448639
 31
0.000000
  0
LINE
  8
1
 10
-15.629767
 20
-19.448639
 30
0.000000
 11
-15.653753
 21
-19.518902
 31
0.000000
  0
LINE
  8
1
 10
-15.653753
 20
-19.518902
 30
0.000000
 11
-15.677690
 21
-19.591070
 31
0.000000
  0
LINE
  8
1
 10
-15.677690
 20
-19.591070
 30
0.000000
 11
-15.701544
 21
-19.665148
 31
0.000000
  0
LINE
  8
1
 10
-15.701544
 20
-19.665148
 30
0.000000
 11
-15.725284
 21
-19.741138
 31
0.000000
  0
LINE
  8
1
 10
-15.725284
 20
-19.741138
 30
0.000000
 11
-15.748878
 21
-19.819044
 31
0.000000
  0
LINE
  8
1
 10
-15.748878
 20
-19.819044
 30
0.000000
 11
-15.772295
 21
-19.898870
 31
0.000000
  0
LINE
  8
1
 10
-15.772295
 20
-19.898870
 30
0.000000
 11
-15.795503
 21
-19.980619
 31
0.000000
  0
LINE
  8
1
 10
-15.795503
 20
-19.980619
 30
0.000000
 11
-15.818470
 21
-20.064293
 31
0.000000
  0
LINE
  8
1
 10
-15.818470
 20
-20.064293
 30
0.000000
 11
-15.841166
 21
-20.149893
 31
0.000000
  0
LINE
  8
1
 10
-15.841166
 20
-20.149893
 30
0.000000
 11
-15.863556
 21
-20.237419
 31
0.000000
  0
LINE
  8
1
 10
-15.863556
 20
-20.237419
 30
0.000000
 11
-15.885612
 21
-20.326878
 31
0.000000
  0
LINE
  8
1
 10
-15.885612
 20
-20.326878
 30
0.000000
 11
-15.907296
 21
-20.418262
 31
0.000000
  0
LINE
  8
1
 10
-15.907296
 20
-20.418262
 30
0.000000
 11
-15.928582
 21
-20.511580
 31
0.000000
  0
LINE
  8
1
 10
-15.928582
 20
-20.511580
 30
0.000000
 11
-15.949435
 21
-20.606827
 31
0.000000
  0
LINE
  8
1
 10
-15.949435
 20
-20.606827
 30
0.000000
 11
-15.969824
 21
-20.704002
 31
0.000000
  0
LINE
  8
1
 10
-15.969824
 20
-20.704002
 30
0.000000
 11
-15.989715
 21
-20.803106
 31
0.000000
  0
LINE
  8
1
 10
-15.989715
 20
-20.803106
 30
0.000000
 11
-16.009077
 21
-20.904139
 31
0.000000
  0
LINE
  8
1
 10
-16.009077
 20
-20.904139
 30
0.000000
 11
-16.027880
 21
-21.007093
 31
0.000000
  0
LINE
  8
1
 10
-16.027880
 20
-21.007093
 30
0.000000
 11
-16.046089
 21
-21.111973
 31
0.000000
  0
LINE
  8
1
 10
-16.046089
 20
-21.111973
 30
0.000000
 11
-16.063673
 21
-21.218771
 31
0.000000
  0
LINE
  8
1
 10
-16.063673
 20
-21.218771
 30
0.000000
 11
-16.080597
 21
-21.327486
 31
0.000000
  0
LINE
  8
1
 10
-16.080597
 20
-21.327486
 30
0.000000
 11
-16.096834
 21
-21.438116
 31
0.000000
  0
LINE
  8
1
 10
-16.096834
 20
-21.438116
 30
0.000000
 11
-16.112349
 21
-21.550655
 31
0.000000
  0
LINE
  8
1
 10
-16.112349
 20
-21.550655
 30
0.000000
 11
-16.125858
 21
-21.655407
 31
0.000000
  0
LINE
  8
1
 10
-16.125858
 20
-21.655407
 30
0.000000
 11
-14.948771
 21
-22.484089
 31
0.000000
  0
LINE
  8
1
 10
-14.948771
 20
-22.484089
 30
0.000000
 11
-14.854712
 21
-22.436045
 31
0.000000
  0
LINE
  8
1
 10
-14.854712
 20
-22.436045
 30
0.000000
 11
-14.753997
 21
-22.383486
 31
0.000000
  0
LINE
  8
1
 10
-14.753997
 20
-22.383486
 30
0.000000
 11
-14.655323
 21
-22.330894
 31
0.000000
  0
LINE
  8
1
 10
-14.655323
 20
-22.330894
 30
0.000000
 11
-14.558683
 21
-22.278299
 31
0.000000
  0
LINE
  8
1
 10
-14.558683
 20
-22.278299
 30
0.000000
 11
-14.464070
 21
-22.225729
 31
0.000000
  0
LINE
  8
1
 10
-14.464070
 20
-22.225729
 30
0.000000
 11
-14.371475
 21
-22.173218
 31
0.000000
  0
LINE
  8
1
 10
-14.371475
 20
-22.173218
 30
0.000000
 11
-14.280891
 21
-22.120798
 31
0.000000
  0
LINE
  8
1
 10
-14.280891
 20
-22.120798
 30
0.000000
 11
-14.192307
 21
-22.068499
 31
0.000000
  0
LINE
  8
1
 10
-14.192307
 20
-22.068499
 30
0.000000
 11
-14.105718
 21
-22.016352
 31
0.000000
  0
LINE
  8
1
 10
-14.105718
 20
-22.016352
 30
0.000000
 11
-14.021110
 21
-21.964388
 31
0.000000
  0
LINE
  8
1
 10
-14.021110
 20
-21.964388
 30
0.000000
 11
-13.938475
 21
-21.912636
 31
0.000000
  0
LINE
  8
1
 10
-13.938475
 20
-21.912636
 30
0.000000
 11
-13.857801
 21
-21.861128
 31
0.000000
  0
LINE
  8
1
 10
-13.857801
 20
-21.861128
 30
0.000000
 11
-13.779082
 21
-21.809895
 31
0.000000
  0
LINE
  8
1
 10
-13.779082
 20
-21.809895
 30
0.000000
 11
-13.702302
 21
-21.758965
 31
0.000000
  0
LINE
  8
1
 10
-13.702302
 20
-21.758965
 30
0.000000
 11
-13.627453
 21
-21.708368
 31
0.000000
  0
LINE
  8
1
 10
-13.627453
 20
-21.708368
 30
0.000000
 11
-13.554520
 21
-21.658134
 31
0.000000
  0
LINE
  8
1
 10
-13.554520
 20
-21.658134
 30
0.000000
 11
-13.483494
 21
-21.608295
 31
0.000000
  0
LINE
  8
1
 10
-13.483494
 20
-21.608295
 30
0.000000
 11
-13.414360
 21
-21.558880
 31
0.000000
  0
LINE
  8
1
 10
-13.414360
 20
-21.558880
 30
0.000000
 11
-13.347107
 21
-21.509914
 31
0.000000
  0
LINE
  8
1
 10
-13.347107
 20
-21.509914
 30
0.000000
 11
-13.281721
 21
-21.461430
 31
0.000000
  0
LINE
  8
1
 10
-13.281721
 20
-21.461430
 30
0.000000
 11
-13.218187
 21
-21.413454
 31
0.000000
  0
LINE
  8
1
 10
-13.218187
 20
-21.413454
 30
0.000000
 11
-13.156493
 21
-21.366016
 31
0.000000
  0
LINE
  8
1
 10
-13.156493
 20
-21.366016
 30
0.000000
 11
-13.096624
 21
-21.319145
 31
0.000000
  0
LINE
  8
1
 10
-13.096624
 20
-21.319145
 30
0.000000
 11
-13.038567
 21
-21.272869
 31
0.000000
  0
LINE
  8
1
 10
-13.038567
 20
-21.272869
 30
0.000000
 11
-12.982303
 21
-21.227215
 31
0.000000
  0
LINE
  8
1
 10
-12.982303
 20
-21.227215
 30
0.000000
 11
-12.927819
 21
-21.182211
 31
0.000000
  0
LINE
  8
1
 10
-12.927819
 20
-21.182211
 30
0.000000
 11
-12.875100
 21
-21.137884
 31
0.000000
  0
LINE
  8
1
 10
-12.875100
 20
-21.137884
 30
0.000000
 11
-12.824128
 21
-21.094263
 31
0.000000
  0
LINE
  8
1
 10
-12.824128
 20
-21.094263
 30
0.000000
 11
-12.774889
 21
-21.051374
 31
0.000000
  0
LINE
  8
1
 10
-12.774889
 20
-21.051374
 30
0.000000
 11
-12.727364
 21
-21.009243
 31
0.000000
  0
LINE
  8
1
 10
-12.727364
 20
-21.009243
 30
0.000000
 11
-12.681538
 21
-20.967897
 31
0.000000
  0
LINE
  8
1
 10
-12.681538
 20
-20.967897
 30
0.000000
 11
-12.637390
 21
-20.927362
 31
0.000000
  0
LINE
  8
1
 10
-12.637390
 20
-20.927362
 30
0.000000
 11
-12.594906
 21
-20.887667
 31
0.000000
  0
LINE
  8
1
 10
-12.594906
 20
-20.887667
 30
0.000000
 11
-12.554067
 21
-20.848835
 31
0.000000
  0
LINE
  8
1
 10
-12.554067
 20
-20.848835
 30
0.000000
 11
-12.514853
 21
-20.810890
 31
0.000000
  0
LINE
  8
1
 10
-12.514853
 20
-20.810890
 30
0.000000
 11
-12.477246
 21
-20.773863
 31
0.000000
  0
LINE
  8
1
 10
-12.477246
 20
-20.773863
 30
0.000000
 11
-12.441229
 21
-20.737774
 31
0.000000
  0
LINE
  8
1
 10
-12.441229
 20
-20.737774
 30
0.000000
 11
-12.406780
 21
-20.702648
 31
0.000000
  0
LINE
  8
1
 10
-12.406780
 20
-20.702648
 30
0.000000
 11
-12.373879
 21
-20.668510
 31
0.000000
  0
LINE
  8
1
 10
-12.373879
 20
-20.668510
 30
0.000000
 11
-12.342509
 21
-20.635389
 31
0.000000
  0
LINE
  8
1
 10
-12.342509
 20
-20.635389
 30
0.000000
 11
-12.312648
 21
-20.603304
 31
0.000000
  0
LINE
  8
1
 10
-12.312648
 20
-20.603304
 30
0.000000
 11
-12.284276
 21
-20.572279
 31
0.000000
  0
LINE
  8
1
 10
-12.284276
 20
-20.572279
 30
0.000000
 11
-12.257370
 21
-20.542337
 31
0.000000
  0
LINE
  8
1
 10
-12.257370
 20
-20.542337
 30
0.000000
 11
-12.231912
 21
-20.513506
 31
0.000000
  0
LINE
  8
1
 10
-12.231912
 20
-20.513506
 30
0.000000
 11
-12.207877
 21
-20.485802
 31
0.000000
  0
LINE
  8
1
 10
-12.207877
 20
-20.485802
 30
0.000000
 11
-12.185246
 21
-20.459251
 31
0.000000
  0
LINE
  8
1
 10
-12.185246
 20
-20.459251
 30
0.000000
 11
-12.163998
 21
-20.433878
 31
0.000000
  0
LINE
  8
1
 10
-12.163998
 20
-20.433878
 30
0.000000
 11
-12.144106
 21
-20.409700
 31
0.000000
  0
LINE
  8
1
 10
-12.144106
 20
-20.409700
 30
0.000000
 11
-12.125551
 21
-20.386742
 31
0.000000
  0
LINE
  8
1
 10
-12.125551
 20
-20.386742
 30
0.000000
 11
-12.108310
 21
-20.365023
 31
0.000000
  0
LINE
  8
1
 10
-12.108310
 20
-20.365023
 30
0.000000
 11
-12.092360
 21
-20.344566
 31
0.000000
  0
LINE
  8
1
 10
-12.092360
 20
-20.344566
 30
0.000000
 11
-12.077675
 21
-20.325390
 31
0.000000
  0
LINE
  8
1
 10
-12.077675
 20
-20.325390
 30
0.000000
 11
-12.064233
 21
-20.307518
 31
0.000000
  0
LINE
  8
1
 10
-12.064233
 20
-20.307518
 30
0.000000
 11
-12.052011
 21
-20.290968
 31
0.000000
  0
LINE
  8
1
 10
-12.052011
 20
-20.290968
 30
0.000000
 11
-12.040984
 21
-20.275759
 31
0.000000
  0
LINE
  8
1
 10
-12.040984
 20
-20.275759
 30
0.000000
 11
-12.031127
 21
-20.261913
 31
0.000000
  0
LINE
  8
1
 10
-12.031127
 20
-20.261913
 30
0.000000
 11
-12.022417
 21
-20.249451
 31
0.000000
  0
LINE
  8
1
 10
-12.022417
 20
-20.249451
 30
0.000000
 11
-12.014827
 21
-20.238384
 31
0.000000
  0
LINE
  8
1
 10
-12.014827
 20
-20.238384
 30
0.000000
 11
-12.008333
 21
-20.228739
 31
0.000000
  0
LINE
  8
1
 10
-12.008333
 20
-20.228739
 30
0.000000
 11
-12.002910
 21
-20.220528
 31
0.000000
  0
LINE
  8
1
 10
-12.002910
 20
-20.220528
 30
0.000000
 11
-11.998531
 21
-20.213774
 31
0.000000
  0
LINE
  8
1
 10
-11.998531
 20
-20.213774
 30
0.000000
 11
-11.995171
 21
-20.208488
 31
0.000000
  0
LINE
  8
1
 10
-11.995171
 20
-20.208488
 30
0.000000
 11
-11.992804
 21
-20.204695
 31
0.000000
  0
LINE
  8
1
 10
-11.992804
 20
-20.204695
 30
0.000000
 11
-11.990941
 21
-20.201639
 31
0.000000
  0
LINE
  8
1
 10
-11.990941
 20
-20.201639
 30
0.000000
 11
-11.484444
 21
-19.348322
 31
0.000000
  0
LINE
  8
1
 10
-11.484444
 20
-19.348322
 30
0.000000
 11
-9.580050
 21
-20.358603
 31
0.000000
  0
LINE
  8
1
 10
-9.580050
 20
-20.358603
 30
0.000000
 11
-10.002557
 21
-21.256475
 31
0.000000
  0
LINE
  8
1
 10
-10.002557
 20
-21.256475
 30
0.000000
 11
-10.004044
 21
-21.259731
 31
0.000000
  0
LINE
  8
1
 10
-10.004044
 20
-21.259731
 30
0.000000
 11
-10.005857
 21
-21.263819
 31
0.000000
  0
LINE
  8
1
 10
-10.005857
 20
-21.263819
 30
0.000000
 11
-10.008348
 21
-21.269564
 31
0.000000
  0
LINE
  8
1
 10
-10.008348
 20
-21.269564
 30
0.000000
 11
-10.011486
 21
-21.276978
 31
0.000000
  0
LINE
  8
1
 10
-10.011486
 20
-21.276978
 30
0.000000
 11
-10.015243
 21
-21.286072
 31
0.000000
  0
LINE
  8
1
 10
-10.015243
 20
-21.286072
 30
0.000000
 11
-10.019588
 21
-21.296858
 31
0.000000
  0
LINE
  8
1
 10
-10.019588
 20
-21.296858
 30
0.000000
 11
-10.024494
 21
-21.309347
 31
0.000000
  0
LINE
  8
1
 10
-10.024494
 20
-21.309347
 30
0.000000
 11
-10.029929
 21
-21.323549
 31
0.000000
  0
LINE
  8
1
 10
-10.029929
 20
-21.323549
 30
0.000000
 11
-10.035866
 21
-21.339474
 31
0.000000
  0
LINE
  8
1
 10
-10.035866
 20
-21.339474
 30
0.000000
 11
-10.042274
 21
-21.357132
 31
0.000000
  0
LINE
  8
1
 10
-10.042274
 20
-21.357132
 30
0.000000
 11
-10.049124
 21
-21.376532
 31
0.000000
  0
LINE
  8
1
 10
-10.049124
 20
-21.376532
 30
0.000000
 11
-10.056385
 21
-21.397684
 31
0.000000
  0
LINE
  8
1
 10
-10.056385
 20
-21.397684
 30
0.000000
 11
-10.064028
 21
-21.420595
 31
0.000000
  0
LINE
  8
1
 10
-10.064028
 20
-21.420595
 30
0.000000
 11
-10.072021
 21
-21.445272
 31
0.000000
  0
LINE
  8
1
 10
-10.072021
 20
-21.445272
 30
0.000000
 11
-10.080336
 21
-21.471727
 31
0.000000
  0
LINE
  8
1
 10
-10.080336
 20
-21.471727
 30
0.000000
 11
-10.088940
 21
-21.499964
 31
0.000000
  0
LINE
  8
1
 10
-10.088940
 20
-21.499964
 30
0.000000
 11
-10.097805
 21
-21.529993
 31
0.000000
  0
LINE
  8
1
 10
-10.097805
 20
-21.529993
 30
0.000000
 11
-10.106898
 21
-21.561815
 31
0.000000
  0
LINE
  8
1
 10
-10.106898
 20
-21.561815
 30
0.000000
 11
-10.116190
 21
-21.595440
 31
0.000000
  0
LINE
  8
1
 10
-10.116190
 20
-21.595440
 30
0.000000
 11
-10.125651
 21
-21.630877
 31
0.000000
  0
LINE
  8
1
 10
-10.125651
 20
-21.630877
 30
0.000000
 11
-10.135247
 21
-21.668123
 31
0.000000
  0
LINE
  8
1
 10
-10.135247
 20
-21.668123
 30
0.000000
 11
-10.144951
 21
-21.707190
 31
0.000000
  0
LINE
  8
1
 10
-10.144951
 20
-21.707190
 30
0.000000
 11
-10.154728
 21
-21.748079
 31
0.000000
  0
LINE
  8
1
 10
-10.154728
 20
-21.748079
 30
0.000000
 11
-10.164550
 21
-21.790796
 31
0.000000
  0
LINE
  8
1
 10
-10.164550
 20
-21.790796
 30
0.000000
 11
-10.174383
 21
-21.835344
 31
0.000000
  0
LINE
  8
1
 10
-10.174383
 20
-21.835344
 30
0.000000
 11
-10.184199
 21
-21.881727
 31
0.000000
  0
LINE
  8
1
 10
-10.184199
 20
-21.881727
 30
0.000000
 11
-10.193965
 21
-21.929947
 31
0.000000
  0
LINE
  8
1
 10
-10.193965
 20
-21.929947
 30
0.000000
 11
-10.203649
 21
-21.980005
 31
0.000000
  0
LINE
  8
1
 10
-10.203649
 20
-21.980005
 30
0.000000
 11
-10.213220
 21
-22.031906
 31
0.000000
  0
LINE
  8
1
 10
-10.213220
 20
-22.031906
 30
0.000000
 11
-10.222647
 21
-22.085653
 31
0.000000
  0
LINE
  8
1
 10
-10.222647
 20
-22.085653
 30
0.000000
 11
-10.231897
 21
-22.141241
 31
0.000000
  0
LINE
  8
1
 10
-10.231897
 20
-22.141241
 30
0.000000
 11
-10.240942
 21
-22.198677
 31
0.000000
  0
LINE
  8
1
 10
-10.240942
 20
-22.198677
 30
0.000000
 11
-10.249748
 21
-22.257961
 31
0.000000
  0
LINE
  8
1
 10
-10.249748
 20
-22.257961
 30
0.000000
 11
-10.258284
 21
-22.319088
 31
0.000000
  0
LINE
  8
1
 10
-10.258284
 20
-22.319088
 30
0.000000
 11
-10.266518
 21
-22.382065
 31
0.000000
  0
LINE
  8
1
 10
-10.266518
 20
-22.382065
 30
0.000000
 11
-10.274417
 21
-22.446884
 31
0.000000
  0
LINE
  8
1
 10
-10.274417
 20
-22.446884
 30
0.000000
 11
-10.281952
 21
-22.513548
 31
0.000000
  0
LINE
  8
1
 10
-10.281952
 20
-22.513548
 30
0.000000
 11
-10.289091
 21
-22.582056
 31
0.000000
  0
LINE
  8
1
 10
-10.289091
 20
-22.582056
 30
0.000000
 11
-10.295801
 21
-22.652403
 31
0.000000
  0
LINE
  8
1
 10
-10.295801
 20
-22.652403
 30
0.000000
 11
-10.302052
 21
-22.724590
 31
0.000000
  0
LINE
  8
1
 10
-10.302052
 20
-22.724590
 30
0.000000
 11
-10.307812
 21
-22.798609
 31
0.000000
  0
LINE
  8
1
 10
-10.307812
 20
-22.798609
 30
0.000000
 11
-10.313048
 21
-22.874462
 31
0.000000
  0
LINE
  8
1
 10
-10.313048
 20
-22.874462
 30
0.000000
 11
-10.317730
 21
-22.952147
 31
0.000000
  0
LINE
  8
1
 10
-10.317730
 20
-22.952147
 30
0.000000
 11
-10.321826
 21
-23.031652
 31
0.000000
  0
LINE
  8
1
 10
-10.321826
 20
-23.031652
 30
0.000000
 11
-10.325305
 21
-23.112980
 31
0.000000
  0
LINE
  8
1
 10
-10.325305
 20
-23.112980
 30
0.000000
 11
-10.328134
 21
-23.196121
 31
0.000000
  0
LINE
  8
1
 10
-10.328134
 20
-23.196121
 30
0.000000
 11
-10.330283
 21
-23.281073
 31
0.000000
  0
LINE
  8
1
 10
-10.330283
 20
-23.281073
 30
0.000000
 11
-10.331720
 21
-23.367828
 31
0.000000
  0
LINE
  8
1
 10
-10.331720
 20
-23.367828
 30
0.000000
 11
-10.332415
 21
-23.456385
 31
0.000000
  0
LINE
  8
1
 10
-10.332415
 20
-23.456385
 30
0.000000
 11
-10.332335
 21
-23.546730
 31
0.000000
  0
LINE
  8
1
 10
-10.332335
 20
-23.546730
 30
0.000000
 11
-10.331450
 21
-23.638863
 31
0.000000
  0
LINE
  8
1
 10
-10.331450
 20
-23.638863
 30
0.000000
 11
-10.329726
 21
-23.732769
 31
0.000000
  0
LINE
  8
1
 10
-10.329726
 20
-23.732769
 30
0.000000
 11
-10.327136
 21
-23.828449
 31
0.000000
  0
LINE
  8
1
 10
-10.327136
 20
-23.828449
 30
0.000000
 11
-10.323647
 21
-23.925890
 31
0.000000
  0
LINE
  8
1
 10
-10.323647
 20
-23.925890
 30
0.000000
 11
-10.319229
 21
-24.025084
 31
0.000000
  0
LINE
  8
1
 10
-10.319229
 20
-24.025084
 30
0.000000
 11
-10.313848
 21
-24.126019
 31
0.000000
  0
LINE
  8
1
 10
-10.313848
 20
-24.126019
 30
0.000000
 11
-10.307479
 21
-24.228691
 31
0.000000
  0
LINE
  8
1
 10
-10.307479
 20
-24.228691
 30
0.000000
 11
-10.300085
 21
-24.333088
 31
0.000000
  0
LINE
  8
1
 10
-10.300085
 20
-24.333088
 30
0.000000
 11
-10.291640
 21
-24.439201
 31
0.000000
  0
LINE
  8
1
 10
-10.291640
 20
-24.439201
 30
0.000000
 11
-10.282111
 21
-24.547018
 31
0.000000
  0
LINE
  8
1
 10
-10.282111
 20
-24.547018
 30
0.000000
 11
-10.271468
 21
-24.656527
 31
0.000000
  0
LINE
  8
1
 10
-10.271468
 20
-24.656527
 30
0.000000
 11
-10.259683
 21
-24.767717
 31
0.000000
  0
LINE
  8
1
 10
-10.259683
 20
-24.767717
 30
0.000000
 11
-10.246722
 21
-24.880581
 31
0.000000
  0
LINE
  8
1
 10
-10.246722
 20
-24.880581
 30
0.000000
 11
-10.233758
 21
-24.985399
 31
0.000000
  0
LINE
  8
1
 10
-10.233758
 20
-24.985399
 30
0.000000
 11
-8.887565
 21
-25.495317
 31
0.000000
  0
LINE
  8
1
 10
-8.887565
 20
-25.495317
 30
0.000000
 11
-8.808410
 21
-25.425392
 31
0.000000
  0
LINE
  8
1
 10
-8.808410
 20
-25.425392
 30
0.000000
 11
-8.723928
 21
-25.349438
 31
0.000000
  0
LINE
  8
1
 10
-8.723928
 20
-25.349438
 30
0.000000
 11
-8.641435
 21
-25.273958
 31
0.000000
  0
LINE
  8
1
 10
-8.641435
 20
-25.273958
 30
0.000000
 11
-8.560911
 21
-25.198982
 31
0.000000
  0
LINE
  8
1
 10
-8.560911
 20
-25.198982
 30
0.000000
 11
-8.482345
 21
-25.124535
 31
0.000000
  0
LINE
  8
1
 10
-8.482345
 20
-25.124535
 30
0.000000
 11
-8.405717
 21
-25.050646
 31
0.000000
  0
LINE
  8
1
 10
-8.405717
 20
-25.050646
 30
0.000000
 11
-8.331015
 21
-24.977346
 31
0.000000
  0
LINE
  8
1
 10
-8.331015
 20
-24.977346
 30
0.000000
 11
-8.258221
 21
-24.904659
 31
0.000000
  0
LINE
  8
1
 10
-8.258221
 20
-24.904659
 30
0.000000
 11
-8.187320
 21
-24.832617
 31
0.000000
  0
LINE
  8
1
 10
-8.187320
 20
-24.832617
 30
0.000000
 11
-8.118293
 21
-24.761244
 31
0.000000
  0
LINE
  8
1
 10
-8.118293
 20
-24.761244
 30
0.000000
 11
-8.051124
 21
-24.690567
 31
0.000000
  0
LINE
  8
1
 10
-8.051124
 20
-24.690567
 30
0.000000
 11
-7.985795
 21
-24.620615
 31
0.000000
  0
LINE
  8
1
 10
-7.985795
 20
-24.620615
 30
0.000000
 11
-7.922290
 21
-24.551414
 31
0.000000
  0
LINE
  8
1
 10
-7.922290
 20
-24.551414
 30
0.000000
 11
-7.860588
 21
-24.482990
 31
0.000000
  0
LINE
  8
1
 10
-7.860588
 20
-24.482990
 30
0.000000
 11
-7.800673
 21
-24.415369
 31
0.000000
  0
LINE
  8
1
 10
-7.800673
 20
-24.415369
 30
0.000000
 11
-7.742524
 21
-24.348577
 31
0.000000
  0
LINE
  8
1
 10
-7.742524
 20
-24.348577
 30
0.000000
 11
-7.686123
 21
-24.282640
 31
0.000000
  0
LINE
  8
1
 10
-7.686123
 20
-24.282640
 30
0.000000
 11
-7.631451
 21
-24.217583
 31
0.000000
  0
LINE
  8
1
 10
-7.631451
 20
-24.217583
 30
0.000000
 11
-7.578488
 21
-24.153433
 31
0.000000
  0
LINE
  8
1
 10
-7.578488
 20
-24.153433
 30
0.000000
 11
-7.527214
 21
-24.090210
 31
0.000000
  0
LINE
  8
1
 10
-7.527214
 20
-24.090210
 30
0.000000
 11
-7.477607
 21
-24.027941
 31
0.000000
  0
LINE
  8
1
 10
-7.477607
 20
-24.027941
 30
0.000000
 11
-7.429648
 21
-23.966650
 31
0.000000
  0
LINE
  8
1
 10
-7.429648
 20
-23.966650
 30
0.000000
 11
-7.383317
 21
-23.906363
 31
0.000000
  0
LINE
  8
1
 10
-7.383317
 20
-23.906363
 30
0.000000
 11
-7.338591
 21
-23.847103
 31
0.000000
  0
LINE
  8
1
 10
-7.338591
 20
-23.847103
 30
0.000000
 11
-7.295449
 21
-23.788891
 31
0.000000
  0
LINE
  8
1
 10
-7.295449
 20
-23.788891
 30
0.000000
 11
-7.253870
 21
-23.731750
 31
0.000000
  0
LINE
  8
1
 10
-7.253870
 20
-23.731750
 30
0.000000
 11
-7.213830
 21
-23.675705
 31
0.000000
  0
LINE
  8
1
 10
-7.213830
 20
-23.675705
 30
0.000000
 11
-7.175308
 21
-23.620779
 31
0.000000
  0
LINE
  8
1
 10
-7.175308
 20
-23.620779
 30
0.000000
 11
-7.138282
 21
-23.566992
 31
0.000000
  0
LINE
  8
1
 10
-7.138282
 20
-23.566992
 30
0.000000
 11
-7.102727
 21
-23.514366
 31
0.000000
  0
LINE
  8
1
 10
-7.102727
 20
-23.514366
 30
0.000000
 11
-7.068622
 21
-23.462923
 31
0.000000
  0
LINE
  8
1
 10
-7.068622
 20
-23.462923
 30
0.000000
 11
-7.035943
 21
-23.412682
 31
0.000000
  0
LINE
  8
1
 10
-7.035943
 20
-23.412682
 30
0.000000
 11
-7.004665
 21
-23.363668
 31
0.000000
  0
LINE
  8
1
 10
-7.004665
 20
-23.363668
 30
0.000000
 11
-6.974766
 21
-23.315901
 31
0.000000
  0
LINE
  8
1
 10
-6.974766
 20
-23.315901
 30
0.000000
 11
-6.946220
 21
-23.269396
 31
0.000000
  0
LINE
  8
1
 10
-6.946220
 20
-23.269396
 30
0.000000
 11
-6.919004
 21
-23.224178
 31
0.000000
  0
LINE
  8
1
 10
-6.919004
 20
-23.224178
 30
0.000000
 11
-6.893093
 21
-23.180265
 31
0.000000
  0
LINE
  8
1
 10
-6.893093
 20
-23.180265
 30
0.000000
 11
-6.868462
 21
-23.137678
 31
0.000000
  0
LINE
  8
1
 10
-6.868462
 20
-23.137678
 30
0.000000
 11
-6.845085
 21
-23.096432
 31
0.000000
  0
LINE
  8
1
 10
-6.845085
 20
-23.096432
 30
0.000000
 11
-6.822937
 21
-23.056547
 31
0.000000
  0
LINE
  8
1
 10
-6.822937
 20
-23.056547
 30
0.000000
 11
-6.801993
 21
-23.018044
 31
0.000000
  0
LINE
  8
1
 10
-6.801993
 20
-23.018044
 30
0.000000
 11
-6.782228
 21
-22.980938
 31
0.000000
  0
LINE
  8
1
 10
-6.782228
 20
-22.980938
 30
0.000000
 11
-6.763613
 21
-22.945246
 31
0.000000
  0
LINE
  8
1
 10
-6.763613
 20
-22.945246
 30
0.000000
 11
-6.746125
 21
-22.910988
 31
0.000000
  0
LINE
  8
1
 10
-6.746125
 20
-22.910988
 30
0.000000
 11
-6.729735
 21
-22.878178
 31
0.000000
  0
LINE
  8
1
 10
-6.729735
 20
-22.878178
 30
0.000000
 11
-6.714418
 21
-22.846834
 31
0.000000
  0
LINE
  8
1
 10
-6.714418
 20
-22.846834
 30
0.000000
 11
-6.700147
 21
-22.816973
 31
0.000000
  0
LINE
  8
1
 10
-6.700147
 20
-22.816973
 30
0.000000
 11
-6.686893
 21
-22.788609
 31
0.000000
  0
LINE
  8
1
 10
-6.686893
 20
-22.788609
 30
0.000000
 11
-6.674631
 21
-22.761757
 31
0.000000
  0
LINE
  8
1
 10
-6.674631
 20
-22.761757
 30
0.000000
 11
-6.663332
 21
-22.736431
 31
0.000000
  0
LINE
  8
1
 10
-6.663332
 20
-22.736431
 30
0.000000
 11
-6.652970
 21
-22.712652
 31
0.000000
  0
LINE
  8
1
 10
-6.652970
 20
-22.712652
 30
0.000000
 11
-6.643516
 21
-22.690426
 31
0.000000
  0
LINE
  8
1
 10
-6.643516
 20
-22.690426
 30
0.000000
 11
-6.634942
 21
-22.669773
 31
0.000000
  0
LINE
  8
1
 10
-6.634942
 20
-22.669773
 30
0.000000
 11
-6.627220
 21
-22.650703
 31
0.000000
  0
LINE
  8
1
 10
-6.627220
 20
-22.650703
 30
0.000000
 11
-6.620320
 21
-22.633230
 31
0.000000
  0
LINE
  8
1
 10
-6.620320
 20
-22.633230
 30
0.000000
 11
-6.614217
 21
-22.617369
 31
0.000000
  0
LINE
  8
1
 10
-6.614217
 20
-22.617369
 30
0.000000
 11
-6.608881
 21
-22.603130
 31
0.000000
  0
LINE
  8
1
 10
-6.608881
 20
-22.603130
 30
0.000000
 11
-6.604280
 21
-22.590525
 31
0.000000
  0
LINE
  8
1
 10
-6.604280
 20
-22.590525
 30
0.000000
 11
-6.600389
 21
-22.579567
 31
0.000000
  0
LINE
  8
1
 10
-6.600389
 20
-22.579567
 30
0.000000
 11
-6.597178
 21
-22.570265
 31
0.000000
  0
LINE
  8
1
 10
-6.597178
 20
-22.570265
 30
0.000000
 11
-6.594617
 21
-22.562634
 31
0.000000
  0
LINE
  8
1
 10
-6.594617
 20
-22.562634
 30
0.000000
 11
-6.592676
 21
-22.556679
 31
0.000000
  0
LINE
  8
1
 10
-6.592676
 20
-22.556679
 30
0.000000
 11
-6.591327
 21
-22.552416
 31
0.000000
  0
LINE
  8
1
 10
-6.591327
 20
-22.552416
 30
0.000000
 11
-6.590283
 21
-22.548992
 31
0.000000
  0
LINE
  8
1
 10
-6.590283
 20
-22.548992
 30
0.000000
 11
-6.311910
 21
-21.596523
 31
0.000000
  0
LINE
  8
1
 10
-6.311910
 20
-21.596523
 30
0.000000
 11
-4.216098
 21
-22.101460
 31
0.000000
  0
LINE
  8
1
 10
-4.216098
 20
-22.101460
 30
0.000000
 11
-4.402040
 21
-23.076199
 31
0.000000
  0
LINE
  8
1
 10
-4.402040
 20
-23.076199
 30
0.000000
 11
-4.402670
 21
-23.079721
 31
0.000000
  0
LINE
  8
1
 10
-4.402670
 20
-23.079721
 30
0.000000
 11
-4.403411
 21
-23.084131
 31
0.000000
  0
LINE
  8
1
 10
-4.403411
 20
-23.084131
 30
0.000000
 11
-4.404395
 21
-23.090317
 31
0.000000
  0
LINE
  8
1
 10
-4.404395
 20
-23.090317
 30
0.000000
 11
-4.405590
 21
-23.098276
 31
0.000000
  0
LINE
  8
1
 10
-4.405590
 20
-23.098276
 30
0.000000
 11
-4.406967
 21
-23.108019
 31
0.000000
  0
LINE
  8
1
 10
-4.406967
 20
-23.108019
 30
0.000000
 11
-4.408494
 21
-23.119549
 31
0.000000
  0
LINE
  8
1
 10
-4.408494
 20
-23.119549
 30
0.000000
 11
-4.410139
 21
-23.132866
 31
0.000000
  0
LINE
  8
1
 10
-4.410139
 20
-23.132866
 30
0.000000
 11
-4.411872
 21
-23.147972
 31
0.000000
  0
LINE
  8
1
 10
-4.411872
 20
-23.147972
 30
0.000000
 11
-4.413662
 21
-23.164873
 31
0.000000
  0
LINE
  8
1
 10
-4.413662
 20
-23.164873
 30
0.000000
 11
-4.415478
 21
-23.183571
 31
0.000000
  0
LINE
  8
1
 10
-4.415478
 20
-23.183571
 30
0.000000
 11
-4.417287
 21
-23.204063
 31
0.000000
  0
LINE
  8
1
 10
-4.417287
 20
-23.204063
 30
0.000000
 11
-4.419060
 21
-23.226357
 31
0.000000
  0
LINE
  8
1
 10
-4.419060
 20
-23.226357
 30
0.000000
 11
-4.420765
 21
-23.250450
 31
0.000000
  0
LINE
  8
1
 10
-4.420765
 20
-23.250450
 30
0.000000
 11
-4.422369
 21
-23.276339
 31
0.000000
  0
LINE
  8
1
 10
-4.422369
 20
-23.276339
 30
0.000000
 11
-4.423844
 21
-23.304031
 31
0.000000
  0
LINE
  8
1
 10
-4.423844
 20
-23.304031
 30
0.000000
 11
-4.425156
 21
-23.333521
 31
0.000000
  0
LINE
  8
1
 10
-4.425156
 20
-23.333521
 30
0.000000
 11
-4.426275
 21
-23.364809
 31
0.000000
  0
LINE
  8
1
 10
-4.426275
 20
-23.364809
 30
0.000000
 11
-4.427168
 21
-23.397894
 31
0.000000
  0
LINE
  8
1
 10
-4.427168
 20
-23.397894
 30
0.000000
 11
-4.427806
 21
-23.432774
 31
0.000000
  0
LINE
  8
1
 10
-4.427806
 20
-23.432774
 30
0.000000
 11
-4.428157
 21
-23.469448
 31
0.000000
  0
LINE
  8
1
 10
-4.428157
 20
-23.469448
 30
0.000000
 11
-4.428190
 21
-23.507912
 31
0.000000
  0
LINE
  8
1
 10
-4.428190
 20
-23.507912
 30
0.000000
 11
-4.427872
 21
-23.548164
 31
0.000000
  0
LINE
  8
1
 10
-4.427872
 20
-23.548164
 30
0.000000
 11
-4.427174
 21
-23.590200
 31
0.000000
  0
LINE
  8
1
 10
-4.427174
 20
-23.590200
 30
0.000000
 11
-4.426064
 21
-23.634018
 31
0.000000
  0
LINE
  8
1
 10
-4.426064
 20
-23.634018
 30
0.000000
 11
-4.424510
 21
-23.679611
 31
0.000000
  0
LINE
  8
1
 10
-4.424510
 20
-23.679611
 30
0.000000
 11
-4.422482
 21
-23.726978
 31
0.000000
  0
LINE
  8
1
 10
-4.422482
 20
-23.726978
 30
0.000000
 11
-4.419949
 21
-23.776112
 31
0.000000
  0
LINE
  8
1
 10
-4.419949
 20
-23.776112
 30
0.000000
 11
-4.416879
 21
-23.827007
 31
0.000000
  0
LINE
  8
1
 10
-4.416879
 20
-23.827007
 30
0.000000
 11
-4.413242
 21
-23.879658
 31
0.000000
  0
LINE
  8
1
 10
-4.413242
 20
-23.879658
 30
0.000000
 11
-4.409008
 21
-23.934059
 31
0.000000
  0
LINE
  8
1
 10
-4.409008
 20
-23.934059
 30
0.000000
 11
-4.404143
 21
-23.990202
 31
0.000000
  0
LINE
  8
1
 10
-4.404143
 20
-23.990202
 30
0.000000
 11
-4.398620
 21
-24.048084
 31
0.000000
  0
LINE
  8
1
 10
-4.398620
 20
-24.048084
 30
0.000000
 11
-4.392406
 21
-24.107695
 31
0.000000
  0
LINE
  8
1
 10
-4.392406
 20
-24.107695
 30
0.000000
 11
-4.385471
 21
-24.169024
 31
0.000000
  0
LINE
  8
1
 10
-4.385471
 20
-24.169024
 30
0.000000
 11
-4.377785
 21
-24.232069
 31
0.000000
  0
LINE
  8
1
 10
-4.377785
 20
-24.232069
 30
0.000000
 11
-4.369317
 21
-24.296816
 31
0.000000
  0
LINE
  8
1
 10
-4.369317
 20
-24.296816
 30
0.000000
 11
-4.360037
 21
-24.363260
 31
0.000000
  0
LINE
  8
1
 10
-4.360037
 20
-24.363260
 30
0.000000
 11
-4.349914
 21
-24.431391
 31
0.000000
  0
LINE
  8
1
 10
-4.349914
 20
-24.431391
 30
0.000000
 11
-4.338919
 21
-24.501198
 31
0.000000
  0
LINE
  8
1
 10
-4.338919
 20
-24.501198
 30
0.000000
 11
-4.327022
 21
-24.572670
 31
0.000000
  0
LINE
  8
1
 10
-4.327022
 20
-24.572670
 30
0.000000
 11
-4.314192
 21
-24.645798
 31
0.000000
  0
LINE
  8
1
 10
-4.314192
 20
-24.645798
 30
0.000000
 11
-4.300399
 21
-24.720570
 31
0.000000
  0
LINE
  8
1
 10
-4.300399
 20
-24.720570
 30
0.000000
 11
-4.285616
 21
-24.796976
 31
0.000000
  0
LINE
  8
1
 10
-4.285616
 20
-24.796976
 30
0.000000
 11
-4.269811
 21
-24.875004
 31
0.000000
  0
LINE
  8
1
 10
-4.269811
 20
-24.875004
 30
0.000000
 11
-4.252954
 21
-24.954641
 31
0.000000
  0
LINE
  8
1
 10
-4.252954
 20
-24.954641
 30
0.000000
 11
-4.235019
 21
-25.035873
 31
0.000000
  0
LINE
  8
1
 10
-4.235019
 20
-25.035873
 30
0.000000
 11
-4.215973
 21
-25.118692
 31
0.000000
  0
LINE
  8
1
 10
-4.215973
 20
-25.118692
 30
0.000000
 11
-4.195790
 21
-25.203079
 31
0.000000
  0
LINE
  8
1
 10
-4.195790
 20
-25.203079
 30
0.000000
 11
-4.174440
 21
-25.289026
 31
0.000000
  0
LINE
  8
1
 10
-4.174440
 20
-25.289026
 30
0.000000
 11
-4.151894
 21
-25.376513
 31
0.000000
  0
LINE
  8
1
 10
-4.151894
 20
-25.376513
 30
0.000000
 11
-4.128125
 21
-25.465530
 31
0.000000
  0
LINE
  8
1
 10
-4.128125
 20
-25.465530
 30
0.000000
 11
-4.103102
 21
-25.556059
 31
0.000000
  0
LINE
  8
1
 10
-4.103102
 20
-25.556059
 30
0.000000
 11
-4.076799
 21
-25.648088
 31
0.000000
  0
LINE
  8
1
 10
-4.076799
 20
-25.648088
 30
0.000000
 11
-4.049187
 21
-25.741600
 31
0.000000
  0
LINE
  8
1
 10
-4.049187
 20
-25.741600
 30
0.000000
 11
-4.020239
 21
-25.836578
 31
0.000000
  0
LINE
  8
1
 10
-4.020239
 20
-25.836578
 30
0.000000
 11
-3.989926
 21
-25.933004
 31
0.000000
  0
LINE
  8
1
 10
-3.989926
 20
-25.933004
 30
0.000000
 11
-3.958222
 21
-26.030869
 31
0.000000
  0
LINE
  8
1
 10
-3.958222
 20
-26.030869
 30
0.000000
 11
-3.925099
 21
-26.130146
 31
0.000000
  0
LINE
  8
1
 10
-3.925099
 20
-26.130146
 30
0.000000
 11
-3.890530
 21
-26.230825
 31
0.000000
  0
LINE
  8
1
 10
-3.890530
 20
-26.230825
 30
0.000000
 11
-3.854488
 21
-26.332886
 31
0.000000
  0
LINE
  8
1
 10
-3.854488
 20
-26.332886
 30
0.000000
 11
-3.816946
 21
-26.436306
 31
0.000000
  0
LINE
  8
1
 10
-3.816946
 20
-26.436306
 30
0.000000
 11
-3.777877
 21
-26.541073
 31
0.000000
  0
LINE
  8
1
 10
-3.777877
 20
-26.541073
 30
0.000000
 11
-3.737257
 21
-26.647167
 31
0.000000
  0
LINE
  8
1
 10
-3.737257
 20
-26.647167
 30
0.000000
 11
-3.698632
 21
-26.745470
 31
0.000000
  0
LINE
  8
1
 10
-3.698632
 20
-26.745470
 30
0.000000
 11
-2.267920
 21
-26.904583
 31
0.000000
  0
LINE
  8
1
 10
-2.267920
 20
-26.904583
 30
0.000000
 11
-2.208642
 21
-26.817169
 31
0.000000
  0
LINE
  8
1
 10
-2.208642
 20
-26.817169
 30
0.000000
 11
-2.145704
 21
-26.722591
 31
0.000000
  0
LINE
  8
1
 10
-2.145704
 20
-26.722591
 30
0.000000
 11
-2.084573
 21
-26.628967
 31
0.000000
  0
LINE
  8
1
 10
-2.084573
 20
-26.628967
 30
0.000000
 11
-2.025225
 21
-26.536322
 31
0.000000
  0
LINE
  8
1
 10
-2.025225
 20
-26.536322
 30
0.000000
 11
-1.967641
 21
-26.444675
 31
0.000000
  0
LINE
  8
1
 10
-1.967641
 20
-26.444675
 30
0.000000
 11
-1.911796
 21
-26.354050
 31
0.000000
  0
LINE
  8
1
 10
-1.911796
 20
-26.354050
 30
0.000000
 11
-1.857670
 21
-26.264475
 31
0.000000
  0
LINE
  8
1
 10
-1.857670
 20
-26.264475
 30
0.000000
 11
-1.805239
 21
-26.175970
 31
0.000000
  0
LINE
  8
1
 10
-1.805239
 20
-26.175970
 30
0.000000
 11
-1.754481
 21
-26.088558
 31
0.000000
  0
LINE
  8
1
 10
-1.754481
 20
-26.088558
 30
0.000000
 11
-1.705373
 21
-26.002260
 31
0.000000
  0
LINE
  8
1
 10
-1.705373
 20
-26.002260
 30
0.000000
 11
-1.657891
 21
-25.917101
 31
0.000000
  0
LINE
  8
1
 10
-1.657891
 20
-25.917101
 30
0.000000
 11
-1.612011
 21
-25.833099
 31
0.000000
  0
LINE
  8
1
 10
-1.612011
 20
-25.833099
 30
0.000000
 11
-1.567710
 21
-25.750280
 31
0.000000
  0
LINE
  8
1
 10
-1.567710
 20
-25.750280
 30
0.000000
 11
-1.524963
 21
-25.668661
 31
0.000000
  0
LINE
  8
1
 10
-1.524963
 20
-25.668661
 30
0.000000
 11
-1.483747
 21
-25.588264
 31
0.000000
  0
LINE
  8
1
 10
-1.483747
 20
-25.588264
 30
0.000000
 11
-1.444036
 21
-25.509109
 31
0.000000
  0
LINE
  8
1
 10
-1.444036
 20
-25.509109
 30
0.000000
 11
-1.405805
 21
-25.431217
 31
0.000000
  0
LINE
  8
1
 10
-1.405805
 20
-25.431217
 30
0.000000
 11
-1.369029
 21
-25.354609
 31
0.000000
  0
LINE
  8
1
 10
-1.369029
 20
-25.354609
 30
0.000000
 11
-1.333684
 21
-25.279301
 31
0.000000
  0
LINE
  8
1
 10
-1.333684
 20
-25.279301
 30
0.000000
 11
-1.299743
 21
-25.205313
 31
0.000000
  0
LINE
  8
1
 10
-1.299743
 20
-25.205313
 30
0.000000
 11
-1.267181
 21
-25.132664
 31
0.000000
  0
LINE
  8
1
 10
-1.267181
 20
-25.132664
 30
0.000000
 11
-1.235971
 21
-25.061373
 31
0.000000
  0
LINE
  8
1
 10
-1.235971
 20
-25.061373
 30
0.000000
 11
-1.206088
 21
-24.991457
 31
0.000000
  0
LINE
  8
1
 10
-1.206088
 20
-24.991457
 30
0.000000
 11
-1.177505
 21
-24.922935
 31
0.000000
  0
LINE
  8
1
 10
-1.177505
 20
-24.922935
 30
0.000000
 11
-1.150195
 21
-24.855824
 31
0.000000
  0
LINE
  8
1
 10
-1.150195
 20
-24.855824
 30
0.000000
 11
-1.124132
 21
-24.790138
 31
0.000000
  0
LINE
  8
1
 10
-1.124132
 20
-24.790138
 30
0.000000
 11
-1.099288
 21
-24.725897
 31
0.000000
  0
LINE
  8
1
 10
-1.099288
 20
-24.725897
 30
0.000000
 11
-1.075636
 21
-24.663115
 31
0.000000
  0
LINE
  8
1
 10
-1.075636
 20
-24.663115
 30
0.000000
 11
-1.053149
 21
-24.601810
 31
0.000000
  0
LINE
  8
1
 10
-1.053149
 20
-24.601810
 30
0.000000
 11
-1.031799
 21
-24.541994
 31
0.000000
  0
LINE
  8
1
 10
-1.031799
 20
-24.541994
 30
0.000000
 11
-1.011559
 21
-24.483686
 31
0.000000
  0
LINE
  8
1
 10
-1.011559
 20
-24.483686
 30
0.000000
 11
-0.992400
 21
-24.426897
 31
0.000000
  0
LINE
  8
1
 10
-0.992400
 20
-24.426897
 30
0.000000
 11
-0.974295
 21
-24.371645
 31
0.000000
  0
LINE
  8
1
 10
-0.974295
 20
-24.371645
 30
0.000000
 11
-0.957215
 21
-24.317942
 31
0.000000
  0
LINE
  8
1
 10
-0.957215
 20
-24.317942
 30
0.000000
 11
-0.941131
 21
-24.265800
 31
0.000000
  0
LINE
  8
1
 10
-0.941131
 20
-24.265800
 30
0.000000
 11
-0.926015
 21
-24.215235
 31
0.000000
  0
LINE
  8
1
 10
-0.926015
 20
-24.215235
 30
0.000000
 11
-0.911838
 21
-24.166258
 31
0.000000
  0
LINE
  8
1
 10
-0.911838
 20
-24.166258
 30
0.000000
 11
-0.898572
 21
-24.118881
 31
0.000000
  0
LINE
  8
1
 10
-0.898572
 20
-24.118881
 30
0.000000
 11
-0.886187
 21
-24.073118
 31
0.000000
  0
LINE
  8
1
 10
-0.886187
 20
-24.073118
 30
0.000000
 11
-0.874654
 21
-24.028980
 31
0.000000
  0
LINE
  8
1
 10
-0.874654
 20
-24.028980
 30
0.000000
 11
-0.863944
 21
-23.986477
 31
0.000000
  0
LINE
  8
1
 10
-0.863944
 20
-23.986477
 30
0.000000
 11
-0.854027
 21
-23.945621
 31
0.000000
  0
LINE
  8
1
 10
-0.854027
 20
-23.945621
 30
0.000000
 11
-0.844874
 21
-23.906422
 31
0.000000
  0
LINE
  8
1
 10
-0.844874
 20
-23.906422
 30
0.000000
 11
-0.836454
 21
-23.868891
 31
0.000000
  0
LINE
  8
1
 10
-0.836454
 20
-23.868891
 30
0.000000
 11
-0.828739
 21
-23.833035
 31
0.000000
  0
LINE
  8
1
 10
-0.828739
 20
-23.833035
 30
0.000000
 11
-0.821698
 21
-23.798866
 31
0.000000
  0
LINE
  8
1
 10
-0.821698
 20
-23.798866
 30
0.000000
 11
-0.815301
 21
-23.766396
 31
0.000000
  0
LINE
  8
1
 10
-0.815301
 20
-23.766396
 30
0.000000
 11
-0.809518
 21
-23.735624
 31
0.000000
  0
LINE
  8
1
 10
-0.809518
 20
-23.735624
 30
0.000000
 11
-0.804319
 21
-23.706568
 31
0.000000
  0
LINE
  8
1
 10
-0.804319
 20
-23.706568
 30
0.000000
 11
-0.799673
 21
-23.679228
 31
0.000000
  0
LINE
  8
1
 10
-0.799673
 20
-23.679228
 30
0.000000
 11
-0.795550
 21
-23.653618
 31
0.000000
  0
LINE
  8
1
 10
-0.795550
 20
-23.653618
 30
0.000000
 11
-0.791920
 21
-23.629740
 31
0.000000
  0
LINE
  8
1
 10
-0.791920
 20
-23.629740
 30
0.000000
 11
-0.788752
 21
-23.607603
 31
0.000000
  0
LINE
  8
1
 10
-0.788752
 20
-23.607603
 30
0.000000
 11
-0.786015
 21
-23.587212
 31
0.000000
  0
LINE
  8
1
 10
-0.786015
 20
-23.587212
 30
0.000000
 11
-0.783678
 21
-23.568573
 31
0.000000
  0
LINE
  8
1
 10
-0.783678
 20
-23.568573
 30
0.000000
 11
-0.781711
 21
-23.551691
 31
0.000000
  0
LINE
  8
1
 10
-0.781711
 20
-23.551691
 30
0.000000
 11
-0.780083
 21
-23.536573
 31
0.000000
  0
LINE
  8
1
 10
-0.780083
 20
-23.536573
 30
0.000000
 11
-0.778762
 21
-23.523220
 31
0.000000
  0
LINE
  8
1
 10
-0.778762
 20
-23.523220
 30
0.000000
 11
-0.777719
 21
-23.511637
 31
0.000000
  0
LINE
  8
1
 10
-0.777719
 20
-23.511637
 30
0.000000
 11
-0.776921
 21
-23.501829
 31
0.000000
  0
LINE
  8
1
 10
-0.776921
 20
-23.501829
 30
0.000000
 11
-0.776338
 21
-23.493801
 31
0.000000
  0
LINE
  8
1
 10
-0.776338
 20
-23.493801
 30
0.000000
 11
-0.775939
 21
-23.487551
 31
0.000000
  0
LINE
  8
1
 10
-0.775939
 20
-23.487551
 30
0.000000
 11
-0.775693
 21
-23.483086
 31
0.000000
  0
LINE
  8
1
 10
-0.775693
 20
-23.483086
 30
0.000000
 11
-0.775533
 21
-23.479511
 31
0.000000
  0
LINE
  8
1
 10
-0.775533
 20
-23.479511
 30
0.000000
 11
-0.742775
 21
-22.487738
 31
0.000000
  0
LINE
  8
1
 10
-0.742775
 20
-22.487738
 30
0.000000
 11
1.412765
 21
-22.455603
 31
0.000000
  0
LINE
  8
1
 10
1.412765
 20
-22.455603
 30
0.000000
 11
1.475072
 21
-23.445959
 31
0.000000
  0
LINE
  8
1
 10
1.475072
 20
-23.445959
 30
0.000000
 11
1.475338
 21
-23.449528
 31
0.000000
  0
LINE
  8
1
 10
1.475338
 20
-23.449528
 30
0.000000
 11
1.475718
 21
-23.453985
 31
0.000000
  0
LINE
  8
1
 10
1.475718
 20
-23.453985
 30
0.000000
 11
1.476303
 21
-23.460220
 31
0.000000
  0
LINE
  8
1
 10
1.476303
 20
-23.460220
 30
0.000000
 11
1.477125
 21
-23.468227
 31
0.000000
  0
LINE
  8
1
 10
1.477125
 20
-23.468227
 30
0.000000
 11
1.478214
 21
-23.478006
 31
0.000000
  0
LINE
  8
1
 10
1.478214
 20
-23.478006
 30
0.000000
 11
1.479603
 21
-23.489552
 31
0.000000
  0
LINE
  8
1
 10
1.479603
 20
-23.489552
 30
0.000000
 11
1.481320
 21
-23.502861
 31
0.000000
  0
LINE
  8
1
 10
1.481320
 20
-23.502861
 30
0.000000
 11
1.483399
 21
-23.517923
 31
0.000000
  0
LINE
  8
1
 10
1.483399
 20
-23.517923
 30
0.000000
 11
1.485868
 21
-23.534739
 31
0.000000
  0
LINE
  8
1
 10
1.485868
 20
-23.534739
 30
0.000000
 11
1.488759
 21
-23.553301
 31
0.000000
  0
LINE
  8
1
 10
1.488759
 20
-23.553301
 30
0.000000
 11
1.492103
 21
-23.573601
 31
0.000000
  0
LINE
  8
1
 10
1.492103
 20
-23.573601
 30
0.000000
 11
1.495930
 21
-23.595634
 31
0.000000
  0
LINE
  8
1
 10
1.495930
 20
-23.595634
 30
0.000000
 11
1.500270
 21
-23.619392
 31
0.000000
  0
LINE
  8
1
 10
1.500270
 20
-23.619392
 30
0.000000
 11
1.505155
 21
-23.644869
 31
0.000000
  0
LINE
  8
1
 10
1.505155
 20
-23.644869
 30
0.000000
 11
1.510613
 21
-23.672056
 31
0.000000
  0
LINE
  8
1
 10
1.510613
 20
-23.672056
 30
0.000000
 11
1.516676
 21
-23.700947
 31
0.000000
  0
LINE
  8
1
 10
1.516676
 20
-23.700947
 30
0.000000
 11
1.523374
 21
-23.731531
 31
0.000000
  0
LINE
  8
1
 10
1.523374
 20
-23.731531
 30
0.000000
 11
1.530736
 21
-23.763798
 31
0.000000
  0
LINE
  8
1
 10
1.530736
 20
-23.763798
 30
0.000000
 11
1.538792
 21
-23.797741
 31
0.000000
  0
LINE
  8
1
 10
1.538792
 20
-23.797741
 30
0.000000
 11
1.547573
 21
-23.833351
 31
0.000000
  0
LINE
  8
1
 10
1.547573
 20
-23.833351
 30
0.000000
 11
1.557107
 21
-23.870613
 31
0.000000
  0
LINE
  8
1
 10
1.557107
 20
-23.870613
 30
0.000000
 11
1.567425
 21
-23.909523
 31
0.000000
  0
LINE
  8
1
 10
1.567425
 20
-23.909523
 30
0.000000
 11
1.578555
 21
-23.950064
 31
0.000000
  0
LINE
  8
1
 10
1.578555
 20
-23.950064
 30
0.000000
 11
1.590528
 21
-23.992229
 31
0.000000
  0
LINE
  8
1
 10
1.590528
 20
-23.992229
 30
0.000000
 11
1.603371
 21
-24.036003
 31
0.000000
  0
LINE
  8
1
 10
1.603371
 20
-24.036003
 30
0.000000
 11
1.617115
 21
-24.081379
 31
0.000000
  0
LINE
  8
1
 10
1.617115
 20
-24.081379
 30
0.000000
 11
1.631788
 21
-24.128338
 31
0.000000
  0
LINE
  8
1
 10
1.631788
 20
-24.128338
 30
0.000000
 11
1.647418
 21
-24.176870
 31
0.000000
  0
LINE
  8
1
 10
1.647418
 20
-24.176870
 30
0.000000
 11
1.664034
 21
-24.226963
 31
0.000000
  0
LINE
  8
1
 10
1.664034
 20
-24.226963
 30
0.000000
 11
1.681665
 21
-24.278603
 31
0.000000
  0
LINE
  8
1
 10
1.681665
 20
-24.278603
 30
0.000000
 11
1.700339
 21
-24.331772
 31
0.000000
  0
LINE
  8
1
 10
1.700339
 20
-24.331772
 30
0.000000
 11
1.720083
 21
-24.386461
 31
0.000000
  0
LINE
  8
1
 10
1.720083
 20
-24.386461
 30
0.000000
 11
1.740926
 21
-24.442654
 31
0.000000
  0
LINE
  8
1
 10
1.740926
 20
-24.442654
 30
0.000000
 11
1.762895
 21
-24.500332
 31
0.000000
  0
LINE
  8
1
 10
1.762895
 20
-24.500332
 30
0.000000
 11
1.786019
 21
-24.559484
 31
0.000000
  0
LINE
  8
1
 10
1.786019
 20
-24.559484
 30
0.000000
 11
1.810323
 21
-24.620092
 31
0.000000
  0
LINE
  8
1
 10
1.810323
 20
-24.620092
 30
0.000000
 11
1.835835
 21
-24.682140
 31
0.000000
  0
LINE
  8
1
 10
1.835835
 20
-24.682140
 30
0.000000
 11
1.862583
 21
-24.745613
 31
0.000000
  0
LINE
  8
1
 10
1.862583
 20
-24.745613
 30
0.000000
 11
1.890593
 21
-24.810492
 31
0.000000
  0
LINE
  8
1
 10
1.890593
 20
-24.810492
 30
0.000000
 11
1.919891
 21
-24.876760
 31
0.000000
  0
LINE
  8
1
 10
1.919891
 20
-24.876760
 30
0.000000
 11
1.950504
 21
-24.944401
 31
0.000000
  0
LINE
  8
1
 10
1.950504
 20
-24.944401
 30
0.000000
 11
1.982458
 21
-25.013393
 31
0.000000
  0
LINE
  8
1
 10
1.982458
 20
-25.013393
 30
0.000000
 11
2.015779
 21
-25.083723
 31
0.000000
  0
LINE
  8
1
 10
2.015779
 20
-25.083723
 30
0.000000
 11
2.050492
 21
-25.155369
 31
0.000000
  0
LINE
  8
1
 10
2.050492
 20
-25.155369
 30
0.000000
 11
2.086624
 21
-25.228312
 31
0.000000
  0
LINE
  8
1
 10
2.086624
 20
-25.228312
 30
0.000000
 11
2.124198
 21
-25.302532
 31
0.000000
  0
LINE
  8
1
 10
2.124198
 20
-25.302532
 30
0.000000
 11
2.163241
 21
-25.378012
 31
0.000000
  0
LINE
  8
1
 10
2.163241
 20
-25.378012
 30
0.000000
 11
2.203776
 21
-25.454729
 31
0.000000
  0
LINE
  8
1
 10
2.203776
 20
-25.454729
 30
0.000000
 11
2.245829
 21
-25.532665
 31
0.000000
  0
LINE
  8
1
 10
2.245829
 20
-25.532665
 30
0.000000
 11
2.289424
 21
-25.611797
 31
0.000000
  0
LINE
  8
1
 10
2.289424
 20
-25.611797
 30
0.000000
 11
2.334585
 21
-25.692106
 31
0.000000
  0
LINE
  8
1
 10
2.334585
 20
-25.692106
 30
0.000000
 11
2.381335
 21
-25.773567
 31
0.000000
  0
LINE
  8
1
 10
2.381335
 20
-25.773567
 30
0.000000
 11
2.429698
 21
-25.856165
 31
0.000000
  0
LINE
  8
1
 10
2.429698
 20
-25.856165
 30
0.000000
 11
2.479698
 21
-25.939871
 31
0.000000
  0
LINE
  8
1
 10
2.479698
 20
-25.939871
 30
0.000000
 11
2.531357
 21
-26.024668
 31
0.000000
  0
LINE
  8
1
 10
2.531357
 20
-26.024668
 30
0.000000
 11
2.584697
 21
-26.110525
 31
0.000000
  0
LINE
  8
1
 10
2.584697
 20
-26.110525
 30
0.000000
 11
2.639743
 21
-26.197430
 31
0.000000
  0
LINE
  8
1
 10
2.639743
 20
-26.197430
 30
0.000000
 11
2.696515
 21
-26.285351
 31
0.000000
  0
LINE
  8
1
 10
2.696515
 20
-26.285351
 30
0.000000
 11
2.755036
 21
-26.374271
 31
0.000000
  0
LINE
  8
1
 10
2.755036
 20
-26.374271
 30
0.000000
 11
2.815327
 21
-26.464161
 31
0.000000
  0
LINE
  8
1
 10
2.815327
 20
-26.464161
 30
0.000000
 11
2.877410
 21
-26.554996
 31
0.000000
  0
LINE
  8
1
 10
2.877410
 20
-26.554996
 30
0.000000
 11
2.941305
 21
-26.646757
 31
0.000000
  0
LINE
  8
1
 10
2.941305
 20
-26.646757
 30
0.000000
 11
3.007034
 21
-26.739416
 31
0.000000
  0
LINE
  8
1
 10
3.007034
 20
-26.739416
 30
0.000000
 11
3.068892
 21
-26.825024
 31
0.000000
  0
LINE
  8
1
 10
3.068892
 20
-26.825024
 30
0.000000
 11
4.494225
 21
-26.623335
 31
0.000000
  0
LINE
  8
1
 10
4.494225
 20
-26.623335
 30
0.000000
 11
4.529902
 21
-26.523926
 31
0.000000
  0
LINE
  8
1
 10
4.529902
 20
-26.523926
 30
0.000000
 11
4.567342
 21
-26.416668
 31
0.000000
  0
LINE
  8
1
 10
4.567342
 20
-26.416668
 30
0.000000
 11
4.603270
 21
-26.310781
 31
0.000000
  0
LINE
  8
1
 10
4.603270
 20
-26.310781
 30
0.000000
 11
4.637712
 21
-26.206287
 31
0.000000
  0
LINE
  8
1
 10
4.637712
 20
-26.206287
 30
0.000000
 11
4.670696
 21
-26.103199
 31
0.000000
  0
LINE
  8
1
 10
4.670696
 20
-26.103199
 30
0.000000
 11
4.702249
 21
-26.001534
 31
0.000000
  0
LINE
  8
1
 10
4.702249
 20
-26.001534
 30
0.000000
 11
4.732399
 21
-25.901314
 31
0.000000
  0
LINE
  8
1
 10
4.732399
 20
-25.901314
 30
0.000000
 11
4.761171
 21
-25.802547
 31
0.000000
  0
LINE
  8
1
 10
4.761171
 20
-25.802547
 30
0.000000
 11
4.788596
 21
-25.705261
 31
0.000000
  0
LINE
  8
1
 10
4.788596
 20
-25.705261
 30
0.000000
 11
4.814700
 21
-25.609461
 31
0.000000
  0
LINE
  8
1
 10
4.814700
 20
-25.609461
 30
0.000000
 11
4.839512
 21
-25.515169
 31
0.000000
  0
LINE
  8
1
 10
4.839512
 20
-25.515169
 30
0.000000
 11
4.863060
 21
-25.422396
 31
0.000000
  0
LINE
  8
1
 10
4.863060
 20
-25.422396
 30
0.000000
 11
4.885374
 21
-25.331161
 31
0.000000
  0
LINE
  8
1
 10
4.885374
 20
-25.331161
 30
0.000000
 11
4.906479
 21
-25.241476
 31
0.000000
  0
LINE
  8
1
 10
4.906479
 20
-25.241476
 30
0.000000
 11
4.926407
 21
-25.153355
 31
0.000000
  0
LINE
  8
1
 10
4.926407
 20
-25.153355
 30
0.000000
 11
4.945186
 21
-25.066811
 31
0.000000
  0
LINE
  8
1
 10
4.945186
 20
-25.066811
 30
0.000000
 11
4.962844
 21
-24.981859
 31
0.000000
  0
LINE
  8
1
 10
4.962844
 20
-24.981859
 30
0.000000
 11
4.979413
 21
-24.898510
 31
0.000000
  0
LINE
  8
1
 10
4.979413
 20
-24.898510
 30
0.000000
 11
4.994919
 21
-24.816778
 31
0.000000
  0
LINE
  8
1
 10
4.994919
 20
-24.816778
 30
0.000000
 11
5.009394
 21
-24.736675
 31
0.000000
  0
LINE
  8
1
 10
5.009394
 20
-24.736675
 30
0.000000
 11
5.022866
 21
-24.658211
 31
0.000000
  0
LINE
  8
1
 10
5.022866
 20
-24.658211
 30
0.000000
 11
5.035366
 21
-24.581398
 31
0.000000
  0
LINE
  8
1
 10
5.035366
 20
-24.581398
 30
0.000000
 11
5.046923
 21
-24.506247
 31
0.000000
  0
LINE
  8
1
 10
5.046923
 20
-24.506247
 30
0.000000
 11
5.057568
 21
-24.432770
 31
0.000000
  0
LINE
  8
1
 10
5.057568
 20
-24.432770
 30
0.000000
 11
5.067329
 21
-24.360973
 31
0.000000
  0
LINE
  8
1
 10
5.067329
 20
-24.360973
 30
0.000000
 11
5.076239
 21
-24.290871
 31
0.000000
  0
LINE
  8
1
 10
5.076239
 20
-24.290871
 30
0.000000
 11
5.084326
 21
-24.222469
 31
0.000000
  0
LINE
  8
1
 10
5.084326
 20
-24.222469
 30
0.000000
 11
5.091621
 21
-24.155777
 31
0.000000
  0
LINE
  8
1
 10
5.091621
 20
-24.155777
 30
0.000000
 11
5.098156
 21
-24.090807
 31
0.000000
  0
LINE
  8
1
 10
5.098156
 20
-24.090807
 30
0.000000
 11
5.103959
 21
-24.027561
 31
0.000000
  0
LINE
  8
1
 10
5.103959
 20
-24.027561
 30
0.000000
 11
5.109063
 21
-23.966051
 31
0.000000
  0
LINE
  8
1
 10
5.109063
 20
-23.966051
 30
0.000000
 11
5.113497
 21
-23.906282
 31
0.000000
  0
LINE
  8
1
 10
5.113497
 20
-23.906282
 30
0.000000
 11
5.117293
 21
-23.848263
 31
0.000000
  0
LINE
  8
1
 10
5.117293
 20
-23.848263
 30
0.000000
 11
5.120481
 21
-23.792000
 31
0.000000
  0
LINE
  8
1
 10
5.120481
 20
-23.792000
 30
0.000000
 11
5.123093
 21
-23.737495
 31
0.000000
  0
LINE
  8
1
 10
5.123093
 20
-23.737495
 30
0.000000
 11
5.125158
 21
-23.684759
 31
0.000000
  0
LINE
  8
1
 10
5.125158
 20
-23.684759
 30
0.000000
 11
5.126709
 21
-23.633797
 31
0.000000
  0
LINE
  8
1
 10
5.126709
 20
-23.633797
 30
0.000000
 11
5.127777
 21
-23.584608
 31
0.000000
  0
LINE
  8
1
 10
5.127777
 20
-23.584608
 30
0.000000
 11
5.128392
 21
-23.537203
 31
0.000000
  0
LINE
  8
1
 10
5.128392
 20
-23.537203
 30
0.000000
 11
5.128586
 21
-23.491583
 31
0.000000
  0
LINE
  8
1
 10
5.128586
 20
-23.491583
 30
0.000000
 11
5.128389
 21
-23.447752
 31
0.000000
  0
LINE
  8
1
 10
5.128389
 20
-23.447752
 30
0.000000
 11
5.127835
 21
-23.405714
 31
0.000000
  0
LINE
  8
1
 10
5.127835
 20
-23.405714
 30
0.000000
 11
5.126952
 21
-23.365469
 31
0.000000
  0
LINE
  8
1
 10
5.126952
 20
-23.365469
 30
0.000000
 11
5.125773
 21
-23.327024
 31
0.000000
  0
LINE
  8
1
 10
5.125773
 20
-23.327024
 30
0.000000
 11
5.124329
 21
-23.290375
 31
0.000000
  0
LINE
  8
1
 10
5.124329
 20
-23.290375
 30
0.000000
 11
5.122652
 21
-23.255529
 31
0.000000
  0
LINE
  8
1
 10
5.122652
 20
-23.255529
 30
0.000000
 11
5.120772
 21
-23.222488
 31
0.000000
  0
LINE
  8
1
 10
5.120772
 20
-23.222488
 30
0.000000
 11
5.118721
 21
-23.191246
 31
0.000000
  0
LINE
  8
1
 10
5.118721
 20
-23.191246
 30
0.000000
 11
5.116531
 21
-23.161808
 31
0.000000
  0
LINE
  8
1
 10
5.116531
 20
-23.161808
 30
0.000000
 11
5.114232
 21
-23.134172
 31
0.000000
  0
LINE
  8
1
 10
5.114232
 20
-23.134172
 30
0.000000
 11
5.111856
 21
-23.108343
 31
0.000000
  0
LINE
  8
1
 10
5.111856
 20
-23.108343
 30
0.000000
 11
5.109434
 21
-23.084312
 31
0.000000
  0
LINE
  8
1
 10
5.109434
 20
-23.084312
 30
0.000000
 11
5.106997
 21
-23.062082
 31
0.000000
  0
LINE
  8
1
 10
5.106997
 20
-23.062082
 30
0.000000
 11
5.104578
 21
-23.041651
 31
0.000000
  0
LINE
  8
1
 10
5.104578
 20
-23.041651
 30
0.000000
 11
5.102205
 21
-23.023016
 31
0.000000
  0
LINE
  8
1
 10
5.102205
 20
-23.023016
 30
0.000000
 11
5.099913
 21
-23.006174
 31
0.000000
  0
LINE
  8
1
 10
5.099913
 20
-23.006174
 30
0.000000
 11
5.097730
 21
-22.991127
 31
0.000000
  0
LINE
  8
1
 10
5.097730
 20
-22.991127
 30
0.000000
 11
5.095688
 21
-22.977865
 31
0.000000
  0
LINE
  8
1
 10
5.095688
 20
-22.977865
 30
0.000000
 11
5.093818
 21
-22.966387
 31
0.000000
  0
LINE
  8
1
 10
5.093818
 20
-22.966387
 30
0.000000
 11
5.092152
 21
-22.956690
 31
0.000000
  0
LINE
  8
1
 10
5.092152
 20
-22.956690
 30
0.000000
 11
5.090720
 21
-22.948769
 31
0.000000
  0
LINE
  8
1
 10
5.090720
 20
-22.948769
 30
0.000000
 11
5.089552
 21
-22.942616
 31
0.000000
  0
LINE
  8
1
 10
5.089552
 20
-22.942616
 30
0.000000
 11
5.088680
 21
-22.938229
 31
0.000000
  0
LINE
  8
1
 10
5.088680
 20
-22.938229
 30
0.000000
 11
5.087946
 21
-22.934727
 31
0.000000
  0
LINE
  8
1
 10
5.087946
 20
-22.934727
 30
0.000000
 11
4.873031
 21
-21.965963
 31
0.000000
  0
LINE
  8
1
 10
4.873031
 20
-21.965963
 30
0.000000
 11
6.952860
 21
-21.398779
 31
0.000000
  0
LINE
  8
1
 10
6.952860
 20
-21.398779
 30
0.000000
 11
7.259501
 21
-22.342527
 31
0.000000
  0
LINE
  8
1
 10
7.259501
 20
-22.342527
 30
0.000000
 11
7.260646
 21
-22.345917
 31
0.000000
  0
LINE
  8
1
 10
7.260646
 20
-22.345917
 30
0.000000
 11
7.262122
 21
-22.350140
 31
0.000000
  0
LINE
  8
1
 10
7.262122
 20
-22.350140
 30
0.000000
 11
7.264239
 21
-22.356033
 31
0.000000
  0
LINE
  8
1
 10
7.264239
 20
-22.356033
 30
0.000000
 11
7.267027
 21
-22.363585
 31
0.000000
  0
LINE
  8
1
 10
7.267027
 20
-22.363585
 30
0.000000
 11
7.270514
 21
-22.372786
 31
0.000000
  0
LINE
  8
1
 10
7.270514
 20
-22.372786
 30
0.000000
 11
7.274730
 21
-22.383623
 31
0.000000
  0
LINE
  8
1
 10
7.274730
 20
-22.383623
 30
0.000000
 11
7.279704
 21
-22.396086
 31
0.000000
  0
LINE
  8
1
 10
7.279704
 20
-22.396086
 30
0.000000
 11
7.285462
 21
-22.410158
 31
0.000000
  0
LINE
  8
1
 10
7.285462
 20
-22.410158
 30
0.000000
 11
7.292036
 21
-22.425831
 31
0.000000
  0
LINE
  8
1
 10
7.292036
 20
-22.425831
 30
0.000000
 11
7.299453
 21
-22.443092
 31
0.000000
  0
LINE
  8
1
 10
7.299453
 20
-22.443092
 30
0.000000
 11
7.307740
 21
-22.461922
 31
0.000000
  0
LINE
  8
1
 10
7.307740
 20
-22.461922
 30
0.000000
 11
7.316926
 21
-22.482311
 31
0.000000
  0
LINE
  8
1
 10
7.316926
 20
-22.482311
 30
0.000000
 11
7.327039
 21
-22.504246
 31
0.000000
  0
LINE
  8
1
 10
7.327039
 20
-22.504246
 30
0.000000
 11
7.338105
 21
-22.527706
 31
0.000000
  0
LINE
  8
1
 10
7.338105
 20
-22.527706
 30
0.000000
 11
7.350153
 21
-22.552683
 31
0.000000
  0
LINE
  8
1
 10
7.350153
 20
-22.552683
 30
0.000000
 11
7.363211
 21
-22.579155
 31
0.000000
  0
LINE
  8
1
 10
7.363211
 20
-22.579155
 30
0.000000
 11
7.377304
 21
-22.607115
 31
0.000000
  0
LINE
  8
1
 10
7.377304
 20
-22.607115
 30
0.000000
 11
7.392459
 21
-22.636536
 31
0.000000
  0
LINE
  8
1
 10
7.392459
 20
-22.636536
 30
0.000000
 11
7.408703
 21
-22.667410
 31
0.000000
  0
LINE
  8
1
 10
7.408703
 20
-22.667410
 30
0.000000
 11
7.426064
 21
-22.699717
 31
0.000000
  0
LINE
  8
1
 10
7.426064
 20
-22.699717
 30
0.000000
 11
7.444566
 21
-22.733438
 31
0.000000
  0
LINE
  8
1
 10
7.444566
 20
-22.733438
 30
0.000000
 11
7.464236
 21
-22.768559
 31
0.000000
  0
LINE
  8
1
 10
7.464236
 20
-22.768559
 30
0.000000
 11
7.485099
 21
-22.805059
 31
0.000000
  0
LINE
  8
1
 10
7.485099
 20
-22.805059
 30
0.000000
 11
7.507181
 21
-22.842922
 31
0.000000
  0
LINE
  8
1
 10
7.507181
 20
-22.842922
 30
0.000000
 11
7.530508
 21
-22.882126
 31
0.000000
  0
LINE
  8
1
 10
7.530508
 20
-22.882126
 30
0.000000
 11
7.555104
 21
-22.922659
 31
0.000000
  0
LINE
  8
1
 10
7.555104
 20
-22.922659
 30
0.000000
 11
7.580994
 21
-22.964495
 31
0.000000
  0
LINE
  8
1
 10
7.580994
 20
-22.964495
 30
0.000000
 11
7.608202
 21
-23.007614
 31
0.000000
  0
LINE
  8
1
 10
7.608202
 20
-23.007614
 30
0.000000
 11
7.636754
 21
-23.052000
 31
0.000000
  0
LINE
  8
1
 10
7.636754
 20
-23.052000
 30
0.000000
 11
7.666673
 21
-23.097633
 31
0.000000
  0
LINE
  8
1
 10
7.666673
 20
-23.097633
 30
0.000000
 11
7.697983
 21
-23.144489
 31
0.000000
  0
LINE
  8
1
 10
7.697983
 20
-23.144489
 30
0.000000
 11
7.730707
 21
-23.192549
 31
0.000000
  0
LINE
  8
1
 10
7.730707
 20
-23.192549
 30
0.000000
 11
7.764870
 21
-23.241793
 31
0.000000
  0
LINE
  8
1
 10
7.764870
 20
-23.241793
 30
0.000000
 11
7.800493
 21
-23.292196
 31
0.000000
  0
LINE
  8
1
 10
7.800493
 20
-23.292196
 30
0.000000
 11
7.837601
 21
-23.343739
 31
0.000000
  0
LINE
  8
1
 10
7.837601
 20
-23.343739
 30
0.000000
 11
7.876214
 21
-23.396399
 31
0.000000
  0
LINE
  8
1
 10
7.876214
 20
-23.396399
 30
0.000000
 11
7.916356
 21
-23.450153
 31
0.000000
  0
LINE
  8
1
 10
7.916356
 20
-23.450153
 30
0.000000
 11
7.958048
 21
-23.504980
 31
0.000000
  0
LINE
  8
1
 10
7.958048
 20
-23.504980
 30
0.000000
 11
8.001313
 21
-23.560854
 31
0.000000
  0
LINE
  8
1
 10
8.001313
 20
-23.560854
 30
0.000000
 11
8.046171
 21
-23.617756
 31
0.000000
  0
LINE
  8
1
 10
8.046171
 20
-23.617756
 30
0.000000
 11
8.092644
 21
-23.675655
 31
0.000000
  0
LINE
  8
1
 10
8.092644
 20
-23.675655
 30
0.000000
 11
8.140751
 21
-23.734535
 31
0.000000
  0
LINE
  8
1
 10
8.140751
 20
-23.734535
 30
0.000000
 11
8.190516
 21
-23.794369
 31
0.000000
  0
LINE
  8
1
 10
8.190516
 20
-23.794369
 30
0.000000
 11
8.241956
 21
-23.855131
 31
0.000000
  0
LINE
  8
1
 10
8.241956
 20
-23.855131
 30
0.000000
 11
8.295093
 21
-23.916796
 31
0.000000
  0
LINE
  8
1
 10
8.295093
 20
-23.916796
 30
0.000000
 11
8.349944
 21
-23.979342
 31
0.000000
  0
LINE
  8
1
 10
8.349944
 20
-23.979342
 30
0.000000
 11
8.406531
 21
-24.042740
 31
0.000000
  0
LINE
  8
1
 10
8.406531
 20
-24.042740
 30
0.000000
 11
8.464872
 21
-24.106966
 31
0.000000
  0
LINE
  8
1
 10
8.464872
 20
-24.106966
 30
0.000000
 11
8.524986
 21
-24.171995
 31
0.000000
  0
LINE
  8
1
 10
8.524986
 20
-24.171995
 30
0.000000
 11
8.586890
 21
-24.237799
 31
0.000000
  0
LINE
  8
1
 10
8.586890
 20
-24.237799
 30
0.000000
 11
8.650604
 21
-24.304356
 31
0.000000
  0
LINE
  8
1
 10
8.650604
 20
-24.304356
 30
0.000000
 11
8.716145
 21
-24.371632
 31
0.000000
  0
LINE
  8
1
 10
8.716145
 20
-24.371632
 30
0.000000
 11
8.783529
 21
-24.439606
 31
0.000000
  0
LINE
  8
1
 10
8.783529
 20
-24.439606
 30
0.000000
 11
8.852775
 21
-24.508247
 31
0.000000
  0
LINE
  8
1
 10
8.852775
 20
-24.508247
 30
0.000000
 11
8.923899
 21
-24.577532
 31
0.000000
  0
LINE
  8
1
 10
8.923899
 20
-24.577532
 30
0.000000
 11
8.996916
 21
-24.647429
 31
0.000000
  0
LINE
  8
1
 10
8.996916
 20
-24.647429
 30
0.000000
 11
9.071844
 21
-24.717913
 31
0.000000
  0
LINE
  8
1
 10
9.071844
 20
-24.717913
 30
0.000000
 11
9.148698
 21
-24.788954
 31
0.000000
  0
LINE
  8
1
 10
9.148698
 20
-24.788954
 30
0.000000
 11
9.227493
 21
-24.860525
 31
0.000000
  0
LINE
  8
1
 10
9.227493
 20
-24.860525
 30
0.000000
 11
9.308246
 21
-24.932598
 31
0.000000
  0
LINE
  8
1
 10
9.308246
 20
-24.932598
 30
0.000000
 11
9.390967
 21
-25.005140
 31
0.000000
  0
LINE
  8
1
 10
9.390967
 20
-25.005140
 30
0.000000
 11
9.475675
 21
-25.078127
 31
0.000000
  0
LINE
  8
1
 10
9.475675
 20
-25.078127
 30
0.000000
 11
9.562382
 21
-25.151529
 31
0.000000
  0
LINE
  8
1
 10
9.562382
 20
-25.151529
 30
0.000000
 11
9.643586
 21
-25.219065
 31
0.000000
  0
LINE
  8
1
 10
9.643586
 20
-25.219065
 30
0.000000
 11
10.973983
 21
-24.669245
 31
0.000000
  0
LINE
  8
1
 10
10.973983
 20
-24.669245
 30
0.000000
 11
10.983817
 21
-24.564087
 31
0.000000
  0
LINE
  8
1
 10
10.983817
 20
-24.564087
 30
0.000000
 11
10.993406
 21
-24.450888
 31
0.000000
  0
LINE
  8
1
 10
10.993406
 20
-24.450888
 30
0.000000
 11
11.001873
 21
-24.339394
 31
0.000000
  0
LINE
  8
1
 10
11.001873
 20
-24.339394
 30
0.000000
 11
11.009247
 21
-24.229616
 31
0.000000
  0
LINE
  8
1
 10
11.009247
 20
-24.229616
 30
0.000000
 11
11.015557
 21
-24.121565
 31
0.000000
  0
LINE
  8
1
 10
11.015557
 20
-24.121565
 30
0.000000
 11
11.020836
 21
-24.015245
 31
0.000000
  0
LINE
  8
1
 10
11.020836
 20
-24.015245
 30
0.000000
 11
11.025114
 21
-23.910675
 31
0.000000
  0
LINE
  8
1
 10
11.025114
 20
-23.910675
 30
0.000000
 11
11.028420
 21
-23.807859
 31
0.000000
  0
LINE
  8
1
 10
11.028420
 20
-23.807859
 30
0.000000
 11
11.030789
 21
-23.706806
 31
0.000000
  0
LINE
  8
1
 10
11.030789
 20
-23.706806
 30
0.000000
 11
11.032249
 21
-23.607527
 31
0.000000
  0
LINE
  8
1
 10
11.032249
 20
-23.607527
 30
0.000000
 11
11.032832
 21
-23.510025
 31
0.000000
  0
LINE
  8
1
 10
11.032832
 20
-23.510025
 30
0.000000
 11
11.032569
 21
-23.414310
 31
0.000000
  0
LINE
  8
1
 10
11.032569
 20
-23.414310
 30
0.000000
 11
11.031492
 21
-23.320395
 31
0.000000
  0
LINE
  8
1
 10
11.031492
 20
-23.320395
 30
0.000000
 11
11.029631
 21
-23.228277
 31
0.000000
  0
LINE
  8
1
 10
11.029631
 20
-23.228277
 30
0.000000
 11
11.027019
 21
-23.137968
 31
0.000000
  0
LINE
  8
1
 10
11.027019
 20
-23.137968
 30
0.000000
 11
11.023684
 21
-23.049473
 31
0.000000
  0
LINE
  8
1
 10
11.023684
 20
-23.049473
 30
0.000000
 11
11.019661
 21
-22.962799
 31
0.000000
  0
LINE
  8
1
 10
11.019661
 20
-22.962799
 30
0.000000
 11
11.014981
 21
-22.877949
 31
0.000000
  0
LINE
  8
1
 10
11.014981
 20
-22.877949
 30
0.000000
 11
11.009675
 21
-22.794928
 31
0.000000
  0
LINE
  8
1
 10
11.009675
 20
-22.794928
 30
0.000000
 11
11.003774
 21
-22.713741
 31
0.000000
  0
LINE
  8
1
 10
11.003774
 20
-22.713741
 30
0.000000
 11
10.997309
 21
-22.634392
 31
0.000000
  0
LINE
  8
1
 10
10.997309
 20
-22.634392
 30
0.000000
 11
10.990314
 21
-22.556883
 31
0.000000
  0
LINE
  8
1
 10
10.990314
 20
-22.556883
 30
0.000000
 11
10.982819
 21
-22.481220
 31
0.000000
  0
LINE
  8
1
 10
10.982819
 20
-22.481220
 30
0.000000
 11
10.974855
 21
-22.407404
 31
0.000000
  0
LINE
  8
1
 10
10.974855
 20
-22.407404
 30
0.000000
 11
10.966455
 21
-22.335436
 31
0.000000
  0
LINE
  8
1
 10
10.966455
 20
-22.335436
 30
0.000000
 11
10.957651
 21
-22.265320
 31
0.000000
  0
LINE
  8
1
 10
10.957651
 20
-22.265320
 30
0.000000
 11
10.948473
 21
-22.197056
 31
0.000000
  0
LINE
  8
1
 10
10.948473
 20
-22.197056
 30
0.000000
 11
10.938954
 21
-22.130646
 31
0.000000
  0
LINE
  8
1
 10
10.938954
 20
-22.130646
 30
0.000000
 11
10.929126
 21
-22.066090
 31
0.000000
  0
LINE
  8
1
 10
10.929126
 20
-22.066090
 30
0.000000
 11
10.919019
 21
-22.003387
 31
0.000000
  0
LINE
  8
1
 10
10.919019
 20
-22.003387
 30
0.000000
 11
10.908665
 21
-21.942541
 31
0.000000
  0
LINE
  8
1
 10
10.908665
 20
-21.942541
 30
0.000000
 11
10.898096
 21
-21.883547
 31
0.000000
  0
LINE
  8
1
 10
10.898096
 20
-21.883547
 30
0.000000
 11
10.887343
 21
-21.826406
 31
0.000000
  0
LINE
  8
1
 10
10.887343
 20
-21.826406
 30
0.000000
 11
10.876439
 21
-21.771118
 31
0.000000
  0
LINE
  8
1
 10
10.876439
 20
-21.771118
 30
0.000000
 11
10.865415
 21
-21.717676
 31
0.000000
  0
LINE
  8
1
 10
10.865415
 20
-21.717676
 30
0.000000
 11
10.854300
 21
-21.666084
 31
0.000000
  0
LINE
  8
1
 10
10.854300
 20
-21.666084
 30
0.000000
 11
10.843129
 21
-21.616337
 31
0.000000
  0
LINE
  8
1
 10
10.843129
 20
-21.616337
 30
0.000000
 11
10.831930
 21
-21.568428
 31
0.000000
  0
LINE
  8
1
 10
10.831930
 20
-21.568428
 30
0.000000
 11
10.820736
 21
-21.522358
 31
0.000000
  0
LINE
  8
1
 10
10.820736
 20
-21.522358
 30
0.000000
 11
10.809579
 21
-21.478125
 31
0.000000
  0
LINE
  8
1
 10
10.809579
 20
-21.478125
 30
0.000000
 11
10.798489
 21
-21.435719
 31
0.000000
  0
LINE
  8
1
 10
10.798489
 20
-21.435719
 30
0.000000
 11
10.787497
 21
-21.395140
 31
0.000000
  0
LINE
  8
1
 10
10.787497
 20
-21.395140
 30
0.000000
 11
10.776633
 21
-21.356379
 31
0.000000
  0
LINE
  8
1
 10
10.776633
 20
-21.356379
 30
0.000000
 11
10.765930
 21
-21.319435
 31
0.000000
  0
LINE
  8
1
 10
10.765930
 20
-21.319435
 30
0.000000
 11
10.755418
 21
-21.284296
 31
0.000000
  0
LINE
  8
1
 10
10.755418
 20
-21.284296
 30
0.000000
 11
10.745128
 21
-21.250963
 31
0.000000
  0
LINE
  8
1
 10
10.745128
 20
-21.250963
 30
0.000000
 11
10.735089
 21
-21.219427
 31
0.000000
  0
LINE
  8
1
 10
10.735089
 20
-21.219427
 30
0.000000
 11
10.725333
 21
-21.189676
 31
0.000000
  0
LINE
  8
1
 10
10.725333
 20
-21.189676
 30
0.000000
 11
10.715891
 21
-21.161709
 31
0.000000
  0
LINE
  8
1
 10
10.715891
 20
-21.161709
 30
0.000000
 11
10.706792
 21
-21.135513
 31
0.000000
  0
LINE
  8
1
 10
10.706792
 20
-21.135513
 30
0.000000
 11
10.698067
 21
-21.111084
 31
0.000000
  0
LINE
  8
1
 10
10.698067
 20
-21.111084
 30
0.000000
 11
10.689745
 21
-21.088411
 31
0.000000
  0
LINE
  8
1
 10
10.689745
 20
-21.088411
 30
0.000000
 11
10.681856
 21
-21.067486
 31
0.000000
  0
LINE
  8
1
 10
10.681856
 20
-21.067486
 30
0.000000
 11
10.674432
 21
-21.048298
 31
0.000000
  0
LINE
  8
1
 10
10.674432
 20
-21.048298
 30
0.000000
 11
10.667500
 21
-21.030838
 31
0.000000
  0
LINE
  8
1
 10
10.667500
 20
-21.030838
 30
0.000000
 11
10.661091
 21
-21.015097
 31
0.000000
  0
LINE
  8
1
 10
10.661091
 20
-21.015097
 30
0.000000
 11
10.655234
 21
-21.001064
 31
0.000000
  0
LINE
  8
1
 10
10.655234
 20
-21.001064
 30
0.000000
 11
10.649959
 21
-20.988728
 31
0.000000
  0
LINE
  8
1
 10
10.649959
 20
-20.988728
 30
0.000000
 11
10.645293
 21
-20.978075
 31
0.000000
  0
LINE
  8
1
 10
10.645293
 20
-20.978075
 30
0.000000
 11
10.641267
 21
-20.969097
 31
0.000000
  0
LINE
  8
1
 10
10.641267
 20
-20.969097
 30
0.000000
 11
10.637910
 21
-20.961781
 31
0.000000
  0
LINE
  8
1
 10
10.637910
 20
-20.961781
 30
0.000000
 11
10.635249
 21
-20.956110
 31
0.000000
  0
LINE
  8
1
 10
10.635249
 20
-20.956110
 30
0.000000
 11
10.633313
 21
-20.952080
 31
0.000000
  0
LINE
  8
1
 10
10.633313
 20
-20.952080
 30
0.000000
 11
10.631731
 21
-20.948870
 31
0.000000
  0
LINE
  8
1
 10
10.631731
 20
-20.948870
 30
0.000000
 11
10.182647
 21
-20.063990
 31
0.000000
  0
LINE
  8
1
 10
10.182647
 20
-20.063990
 30
0.000000
 11
12.056080
 21
-18.997393
 31
0.000000
  0
LINE
  8
1
 10
12.056080
 20
-18.997393
 30
0.000000
 11
12.587789
 21
-19.835234
 31
0.000000
  0
LINE
  8
1
 10
12.587789
 20
-19.835234
 30
0.000000
 11
12.589741
 21
-19.838232
 31
0.000000
  0
LINE
  8
1
 10
12.589741
 20
-19.838232
 30
0.000000
 11
12.592220
 21
-19.841953
 31
0.000000
  0
LINE
  8
1
 10
12.592220
 20
-19.841953
 30
0.000000
 11
12.595737
 21
-19.847136
 31
0.000000
  0
LINE
  8
1
 10
12.595737
 20
-19.847136
 30
0.000000
 11
12.600314
 21
-19.853758
 31
0.000000
  0
LINE
  8
1
 10
12.600314
 20
-19.853758
 30
0.000000
 11
12.605981
 21
-19.861803
 31
0.000000
  0
LINE
  8
1
 10
12.605981
 20
-19.861803
 30
0.000000
 11
12.612760
 21
-19.871250
 31
0.000000
  0
LINE
  8
1
 10
12.612760
 20
-19.871250
 30
0.000000
 11
12.620676
 21
-19.882086
 31
0.000000
  0
LINE
  8
1
 10
12.620676
 20
-19.882086
 30
0.000000
 11
12.629753
 21
-19.894283
 31
0.000000
  0
LINE
  8
1
 10
12.629753
 20
-19.894283
 30
0.000000
 11
12.640018
 21
-19.907829
 31
0.000000
  0
LINE
  8
1
 10
12.640018
 20
-19.907829
 30
0.000000
 11
12.651494
 21
-19.922703
 31
0.000000
  0
LINE
  8
1
 10
12.651494
 20
-19.922703
 30
0.000000
 11
12.664204
 21
-19.938881
 31
0.000000
  0
LINE
  8
1
 10
12.664204
 20
-19.938881
 30
0.000000
 11
12.678172
 21
-19.956345
 31
0.000000
  0
LINE
  8
1
 10
12.678172
 20
-19.956345
 30
0.000000
 11
12.693421
 21
-19.975075
 31
0.000000
  0
LINE
  8
1
 10
12.693421
 20
-19.975075
 30
0.000000
 11
12.709975
 21
-19.995047
 31
0.000000
  0
LINE
  8
1
 10
12.709975
 20
-19.995047
 30
0.000000
 11
12.727857
 21
-20.016241
 31
0.000000
  0
LINE
  8
1
 10
12.727857
 20
-20.016241
 30
0.000000
 11
12.747087
 21
-20.038637
 31
0.000000
  0
LINE
  8
1
 10
12.747087
 20
-20.038637
 30
0.000000
 11
12.767691
 21
-20.062212
 31
0.000000
  0
LINE
  8
1
 10
12.767691
 20
-20.062212
 30
0.000000
 11
12.789686
 21
-20.086941
 31
0.000000
  0
LINE
  8
1
 10
12.789686
 20
-20.086941
 30
0.000000
 11
12.813098
 21
-20.112804
 31
0.000000
  0
LINE
  8
1
 10
12.813098
 20
-20.112804
 30
0.000000
 11
12.837948
 21
-20.139778
 31
0.000000
  0
LINE
  8
1
 10
12.837948
 20
-20.139778
 30
0.000000
 11
12.864255
 21
-20.167839
 31
0.000000
  0
LINE
  8
1
 10
12.864255
 20
-20.167839
 30
0.000000
 11
12.892040
 21
-20.196964
 31
0.000000
  0
LINE
  8
1
 10
12.892040
 20
-20.196964
 30
0.000000
 11
12.921326
 21
-20.227129
 31
0.000000
  0
LINE
  8
1
 10
12.921326
 20
-20.227129
 30
0.000000
 11
12.952130
 21
-20.258312
 31
0.000000
  0
LINE
  8
1
 10
12.952130
 20
-20.258312
 30
0.000000
 11
12.984473
 21
-20.290483
 31
0.000000
  0
LINE
  8
1
 10
12.984473
 20
-20.290483
 30
0.000000
 11
13.018376
 21
-20.323626
 31
0.000000
  0
LINE
  8
1
 10
13.018376
 20
-20.323626
 30
0.000000
 11
13.053858
 21
-20.357708
 31
0.000000
  0
LINE
  8
1
 10
13.053858
 20
-20.357708
 30
0.000000
 11
13.090935
 21
-20.392708
 31
0.000000
  0
LINE
  8
1
 10
13.090935
 20
-20.392708
 30
0.000000
 11
13.129628
 21
-20.428598
 31
0.000000
  0
LINE
  8
1
 10
13.129628
 20
-20.428598
 30
0.000000
 11
13.169955
 21
-20.465357
 31
0.000000
  0
LINE
  8
1
 10
13.169955
 20
-20.465357
 30
0.000000
 11
13.211934
 21
-20.502954
 31
0.000000
  0
LINE
  8
1
 10
13.211934
 20
-20.502954
 30
0.000000
 11
13.255583
 21
-20.541367
 31
0.000000
  0
LINE
  8
1
 10
13.255583
 20
-20.541367
 30
0.000000
 11
13.300919
 21
-20.580566
 31
0.000000
  0
LINE
  8
1
 10
13.300919
 20
-20.580566
 30
0.000000
 11
13.347958
 21
-20.620527
 31
0.000000
  0
LINE
  8
1
 10
13.347958
 20
-20.620527
 30
0.000000
 11
13.396717
 21
-20.661222
 31
0.000000
  0
LINE
  8
1
 10
13.396717
 20
-20.661222
 30
0.000000
 11
13.447213
 21
-20.702625
 31
0.000000
  0
LINE
  8
1
 10
13.447213
 20
-20.702625
 30
0.000000
 11
13.499462
 21
-20.744707
 31
0.000000
  0
LINE
  8
1
 10
13.499462
 20
-20.744707
 30
0.000000
 11
13.553479
 21
-20.787443
 31
0.000000
  0
LINE
  8
1
 10
13.553479
 20
-20.787443
 30
0.000000
 11
13.609281
 21
-20.830803
 31
0.000000
  0
LINE
  8
1
 10
13.609281
 20
-20.830803
 30
0.000000
 11
13.666880
 21
-20.874762
 31
0.000000
  0
LINE
  8
1
 10
13.666880
 20
-20.874762
 30
0.000000
 11
13.726292
 21
-20.919285
 31
0.000000
  0
LINE
  8
1
 10
13.726292
 20
-20.919285
 30
0.000000
 11
13.787531
 21
-20.964352
 31
0.000000
  0
LINE
  8
1
 10
13.787531
 20
-20.964352
 30
0.000000
 11
13.850612
 21
-21.009928
 31
0.000000
  0
LINE
  8
1
 10
13.850612
 20
-21.009928
 30
0.000000
 11
13.915546
 21
-21.055990
 31
0.000000
  0
LINE
  8
1
 10
13.915546
 20
-21.055990
 30
0.000000
 11
13.982349
 21
-21.102503
 31
0.000000
  0
LINE
  8
1
 10
13.982349
 20
-21.102503
 30
0.000000
 11
14.051032
 21
-21.149441
 31
0.000000
  0
LINE
  8
1
 10
14.051032
 20
-21.149441
 30
0.000000
 11
14.121608
 21
-21.196775
 31
0.000000
  0
LINE
  8
1
 10
14.121608
 20
-21.196775
 30
0.000000
 11
14.194088
 21
-21.244474
 31
0.000000
  0
LINE
  8
1
 10
14.194088
 20
-21.244474
 30
0.000000
 11
14.268486
 21
-21.292513
 31
0.000000
  0
LINE
  8
1
 10
14.268486
 20
-21.292513
 30
0.000000
 11
14.344810
 21
-21.340855
 31
0.000000
  0
LINE
  8
1
 10
14.344810
 20
-21.340855
 30
0.000000
 11
14.423074
 21
-21.389473
 31
0.000000
  0
LINE
  8
1
 10
14.423074
 20
-21.389473
 30
0.000000
 11
14.503286
 21
-21.438337
 31
0.000000
  0
LINE
  8
1
 10
14.503286
 20
-21.438337
 30
0.000000
 11
14.585458
 21
-21.487417
 31
0.000000
  0
LINE
  8
1
 10
14.585458
 20
-21.487417
 30
0.000000
 11
14.669600
 21
-21.536684
 31
0.000000
  0
LINE
  8
1
 10
14.669600
 20
-21.536684
 30
0.000000
 11
14.755718
 21
-21.586103
 31
0.000000
  0
LINE
  8
1
 10
14.755718
 20
-21.586103
 30
0.000000
 11
14.843824
 21
-21.635645
 31
0.000000
  0
LINE
  8
1
 10
14.843824
 20
-21.635645
 30
0.000000
 11
14.933928
 21
-21.685282
 31
0.000000
  0
LINE
  8
1
 10
14.933928
 20
-21.685282
 30
0.000000
 11
15.026034
 21
-21.734976
 31
0.000000
  0
LINE
  8
1
 10
15.026034
 20
-21.734976
 30
0.000000
 11
15.120153
 21
-21.784704
 31
0.000000
  0
LINE
  8
1
 10
15.120153
 20
-21.784704
 30
0.000000
 11
15.216291
 21
-21.834431
 31
0.000000
  0
LINE
  8
1
 10
15.216291
 20
-21.834431
 30
0.000000
 11
15.314456
 21
-21.884123
 31
0.000000
  0
LINE
  8
1
 10
15.314456
 20
-21.884123
 30
0.000000
 11
15.414653
 21
-21.933750
 31
0.000000
  0
LINE
  8
1
 10
15.414653
 20
-21.933750
 30
0.000000
 11
15.516891
 21
-21.983284
 31
0.000000
  0
LINE
  8
1
 10
15.516891
 20
-21.983284
 30
0.000000
 11
15.612339
 21
-22.028502
 31
0.000000
  0
LINE
  8
1
 10
15.612339
 20
-22.028502
 30
0.000000
 11
16.764204
 21
-21.165102
 31
0.000000
  0
LINE
  8
1
 10
16.764204
 20
-21.165102
 30
0.000000
 11
16.747576
 21
-21.060801
 31
0.000000
  0
LINE
  8
1
 10
16.747576
 20
-21.060801
 30
0.000000
 11
16.728714
 21
-20.948772
 31
0.000000
  0
LINE
  8
1
 10
16.728714
 20
-20.948772
 30
0.000000
 11
16.709187
 21
-20.838676
 31
0.000000
  0
LINE
  8
1
 10
16.709187
 20
-20.838676
 30
0.000000
 11
16.689028
 21
-20.730515
 31
0.000000
  0
LINE
  8
1
 10
16.689028
 20
-20.730515
 30
0.000000
 11
16.668270
 21
-20.624287
 31
0.000000
  0
LINE
  8
1
 10
16.668270
 20
-20.624287
 30
0.000000
 11
16.646942
 21
-20.519997
 31
0.000000
  0
LINE
  8
1
 10
16.646942
 20
-20.519997
 30
0.000000
 11
16.625080
 21
-20.417648
 31
0.000000
  0
LINE
  8
1
 10
16.625080
 20
-20.417648
 30
0.000000
 11
16.602713
 21
-20.317238
 31
0.000000
  0
LINE
  8
1
 10
16.602713
 20
-20.317238
 30
0.000000
 11
16.579878
 21
-20.218773
 31
0.000000
  0
LINE
  8
1
 10
16.579878
 20
-20.218773
 30
0.000000
 11
16.556601
 21
-20.122248
 31
0.000000
  0
LINE
  8
1
 10
16.556601
 20
-20.122248
 30
0.000000
 11
16.532919
 21
-20.027664
 31
0.000000
  0
LINE
  8
1
 10
16.532919
 20
-20.027664
 30
0.000000
 11
16.508860
 21
-19.935022
 31
0.000000
  0
LINE
  8
1
 10
16.508860
 20
-19.935022
 30
0.000000
 11
16.484461
 21
-19.844324
 31
0.000000
  0
LINE
  8
1
 10
16.484461
 20
-19.844324
 30
0.000000
 11
16.459749
 21
-19.755564
 31
0.000000
  0
LINE
  8
1
 10
16.459749
 20
-19.755564
 30
0.000000
 11
16.434759
 21
-19.668743
 31
0.000000
  0
LINE
  8
1
 10
16.434759
 20
-19.668743
 30
0.000000
 11
16.409523
 21
-19.583857
 31
0.000000
  0
LINE
  8
1
 10
16.409523
 20
-19.583857
 30
0.000000
 11
16.384071
 21
-19.500906
 31
0.000000
  0
LINE
  8
1
 10
16.384071
 20
-19.500906
 30
0.000000
 11
16.358437
 21
-19.419886
 31
0.000000
  0
LINE
  8
1
 10
16.358437
 20
-19.419886
 30
0.000000
 11
16.332651
 21
-19.340794
 31
0.000000
  0
LINE
  8
1
 10
16.332651
 20
-19.340794
 30
0.000000
 11
16.306746
 21
-19.263624
 31
0.000000
  0
LINE
  8
1
 10
16.306746
 20
-19.263624
 30
0.000000
 11
16.280750
 21
-19.188375
 31
0.000000
  0
LINE
  8
1
 10
16.280750
 20
-19.188375
 30
0.000000
 11
16.254698
 21
-19.115042
 31
0.000000
  0
LINE
  8
1
 10
16.254698
 20
-19.115042
 30
0.000000
 11
16.228622
 21
-19.043619
 31
0.000000
  0
LINE
  8
1
 10
16.228622
 20
-19.043619
 30
0.000000
 11
16.202553
 21
-18.974102
 31
0.000000
  0
LINE
  8
1
 10
16.202553
 20
-18.974102
 30
0.000000
 11
16.176519
 21
-18.906485
 31
0.000000
  0
LINE
  8
1
 10
16.176519
 20
-18.906485
 30
0.000000
 11
16.150555
 21
-18.840761
 31
0.000000
  0
LINE
  8
1
 10
16.150555
 20
-18.840761
 30
0.000000
 11
16.124687
 21
-18.776922
 31
0.000000
  0
LINE
  8
1
 10
16.124687
 20
-18.776922
 30
0.000000
 11
16.098951
 21
-18.714966
 31
0.000000
  0
LINE
  8
1
 10
16.098951
 20
-18.714966
 30
0.000000
 11
16.073378
 21
-18.654884
 31
0.000000
  0
LINE
  8
1
 10
16.073378
 20
-18.654884
 30
0.000000
 11
16.047995
 21
-18.596666
 31
0.000000
  0
LINE
  8
1
 10
16.047995
 20
-18.596666
 30
0.000000
 11
16.022835
 21
-18.540306
 31
0.000000
  0
LINE
  8
1
 10
16.022835
 20
-18.540306
 30
0.000000
 11
15.997927
 21
-18.485792
 31
0.000000
  0
LINE
  8
1
 10
15.997927
 20
-18.485792
 30
0.000000
 11
15.973301
 21
-18.433121
 31
0.000000
  0
LINE
  8
1
 10
15.973301
 20
-18.433121
 30
0.000000
 11
15.948991
 21
-18.382282
 31
0.000000
  0
LINE
  8
1
 10
15.948991
 20
-18.382282
 30
0.000000
 11
15.925021
 21
-18.333261
 31
0.000000
  0
LINE
  8
1
 10
15.925021
 20
-18.333261
 30
0.000000
 11
15.901425
 21
-18.286053
 31
0.000000
  0
LINE
  8
1
 10
15.901425
 20
-18.286053
 30
0.000000
 11
15.878234
 21
-18.240646
 31
0.000000
  0
LINE
  8
1
 10
15.878234
 20
-18.240646
 30
0.000000
 11
15.855473
 21
-18.197029
 31
0.000000
  0
LINE
  8
1
 10
15.855473
 20
-18.197029
 30
0.000000
 11
15.833173
 21
-18.155190
 31
0.000000
  0
LINE
  8
1
 10
15.833173
 20
-18.155190
 30
0.000000
 11
15.811366
 21
-18.115120
 31
0.000000
  0
LINE
  8
1
 10
15.811366
 20
-18.115120
 30
0.000000
 11
15.790078
 21
-18.076805
 31
0.000000
  0
LINE
  8
1
 10
15.790078
 20
-18.076805
 30
0.000000
 11
15.769340
 21
-18.040234
 31
0.000000
  0
LINE
  8
1
 10
15.769340
 20
-18.040234
 30
0.000000
 11
15.749179
 21
-18.005392
 31
0.000000
  0
LINE
  8
1
 10
15.749179
 20
-18.005392
 30
0.000000
 11
15.729625
 21
-17.972271
 31
0.000000
  0
LINE
  8
1
 10
15.729625
 20
-17.972271
 30
0.000000
 11
15.710704
 21
-17.940851
 31
0.000000
  0
LINE
  8
1
 10
15.710704
 20
-17.940851
 30
0.000000
 11
15.692447
 21
-17.911123
 31
0.000000
  0
LINE
  8
1
 10
15.692447
 20
-17.911123
 30
0.000000
 11
15.674881
 21
-17.883074
 31
0.000000
  0
LINE
  8
1
 10
15.674881
 20
-17.883074
 30
0.000000
 11
15.658033
 21
-17.856686
 31
0.000000
  0
LINE
  8
1
 10
15.658033
 20
-17.856686
 30
0.000000
 11
15.641932
 21
-17.831944
 31
0.000000
  0
LINE
  8
1
 10
15.641932
 20
-17.831944
 30
0.000000
 11
15.626604
 21
-17.808834
 31
0.000000
  0
LINE
  8
1
 10
15.626604
 20
-17.808834
 30
0.000000
 11
15.612078
 21
-17.787344
 31
0.000000
  0
LINE
  8
1
 10
15.612078
 20
-17.787344
 30
0.000000
 11
15.598379
 21
-17.767452
 31
0.000000
  0
LINE
  8
1
 10
15.598379
 20
-17.767452
 30
0.000000
 11
15.585534
 21
-17.749146
 31
0.000000
  0
LINE
  8
1
 10
15.585534
 20
-17.749146
 30
0.000000
 11
15.573571
 21
-17.732409
 31
0.000000
  0
LINE
  8
1
 10
15.573571
 20
-17.732409
 30
0.000000
 11
15.562514
 21
-17.717220
 31
0.000000
  0
LINE
  8
1
 10
15.562514
 20
-17.717220
 30
0.000000
 11
15.552392
 21
-17.703568
 31
0.000000
  0
LINE
  8
1
 10
15.552392
 20
-17.703568
 30
0.000000
 11
15.543230
 21
-17.691433
 31
0.000000
  0
LINE
  8
1
 10
15.543230
 20
-17.691433
 30
0.000000
 11
15.535052
 21
-17.680794
 31
0.000000
  0
LINE
  8
1
 10
15.535052
 20
-17.680794
 30
0.000000
 11
15.527884
 21
-17.671637
 31
0.000000
  0
LINE
  8
1
 10
15.527884
 20
-17.671637
 30
0.000000
 11
15.521752
 21
-17.663942
 31
0.000000
  0
LINE
  8
1
 10
15.521752
 20
-17.663942
 30
0.000000
 11
15.516681
 21
-17.657690
 31
0.000000
  0
LINE
  8
1
 10
15.516681
 20
-17.657690
 30
0.000000
 11
15.512693
 21
-17.652861
 31
0.000000
  0
LINE
  8
1
 10
15.512693
 20
-17.652861
 30
0.000000
 11
15.509816
 21
-17.649437
 31
0.000000
  0
LINE
  8
1
 10
15.509816
 20
-17.649437
 30
0.000000
 11
15.507485
 21
-17.646723
 31
0.000000
  0
LINE
  8
1
 10
15.507485
 20
-17.646723
 30
0.000000
 11
14.852449
 21
-16.901325
 31
0.000000
  0
LINE
  8
1
 10
14.852449
 20
-16.901325
 30
0.000000
 11
16.401773
 21
-15.402330
 31
0.000000
  0
LINE
  8
1
 10
16.401773
 20
-15.402330
 30
0.000000
 11
17.125139
 21
-16.081617
 31
0.000000
  0
LINE
  8
1
 10
17.125139
 20
-16.081617
 30
0.000000
 11
17.127777
 21
-16.084038
 31
0.000000
  0
LINE
  8
1
 10
17.127777
 20
-16.084038
 30
0.000000
 11
17.131104
 21
-16.087025
 31
0.000000
  0
LINE
  8
1
 10
17.131104
 20
-16.087025
 30
0.000000
 11
17.135798
 21
-16.091171
 31
0.000000
  0
LINE
  8
1
 10
17.135798
 20
-16.091171
 30
0.000000
 11
17.141878
 21
-16.096445
 31
0.000000
  0
LINE
  8
1
 10
17.141878
 20
-16.096445
 30
0.000000
 11
17.149368
 21
-16.102827
 31
0.000000
  0
LINE
  8
1
 10
17.149368
 20
-16.102827
 30
0.000000
 11
17.158283
 21
-16.110294
 31
0.000000
  0
LINE
  8
1
 10
17.158283
 20
-16.110294
 30
0.000000
 11
17.168646
 21
-16.118820
 31
0.000000
  0
LINE
  8
1
 10
17.168646
 20
-16.118820
 30
0.000000
 11
17.180471
 21
-16.128376
 31
0.000000
  0
LINE
  8
1
 10
17.180471
 20
-16.128376
 30
0.000000
 11
17.193783
 21
-16.138945
 31
0.000000
  0
LINE
  8
1
 10
17.193783
 20
-16.138945
 30
0.000000
 11
17.208597
 21
-16.150496
 31
0.000000
  0
LINE
  8
1
 10
17.208597
 20
-16.150496
 30
0.000000
 11
17.224930
 21
-16.163006
 31
0.000000
  0
LINE
  8
1
 10
17.224930
 20
-16.163006
 30
0.000000
 11
17.242804
 21
-16.176447
 31
0.000000
  0
LINE
  8
1
 10
17.242804
 20
-16.176447
 30
0.000000
 11
17.262232
 21
-16.190796
 31
0.000000
  0
LINE
  8
1
 10
17.262232
 20
-16.190796
 30
0.000000
 11
17.283232
 21
-16.206024
 31
0.000000
  0
LINE
  8
1
 10
17.283232
 20
-16.206024
 30
0.000000
 11
17.305822
 21
-16.222105
 31
0.000000
  0
LINE
  8
1
 10
17.305822
 20
-16.222105
 30
0.000000
 11
17.330017
 21
-16.239016
 31
0.000000
  0
LINE
  8
1
 10
17.330017
 20
-16.239016
 30
0.000000
 11
17.355837
 21
-16.256725
 31
0.000000
  0
LINE
  8
1
 10
17.355837
 20
-16.256725
 30
0.000000
 11
17.383291
 21
-16.275208
 31
0.000000
  0
LINE
  8
1
 10
17.383291
 20
-16.275208
 30
0.000000
 11
17.412399
 21
-16.294436
 31
0.000000
  0
LINE
  8
1
 10
17.412399
 20
-16.294436
 30
0.000000
 11
17.443176
 21
-16.314383
 31
0.000000
  0
LINE
  8
1
 10
17.443176
 20
-16.314383
 30
0.000000
 11
17.475636
 21
-16.335020
 31
0.000000
  0
LINE
  8
1
 10
17.475636
 20
-16.335020
 30
0.000000
 11
17.509792
 21
-16.356321
 31
0.000000
  0
LINE
  8
1
 10
17.509792
 20
-16.356321
 30
0.000000
 11
17.545658
 21
-16.378256
 31
0.000000
  0
LINE
  8
1
 10
17.545658
 20
-16.378256
 30
0.000000
 11
17.583250
 21
-16.400797
 31
0.000000
  0
LINE
  8
1
 10
17.583250
 20
-16.400797
 30
0.000000
 11
17.622578
 21
-16.423914
 31
0.000000
  0
LINE
  8
1
 10
17.622578
 20
-16.423914
 30
0.000000
 11
17.663658
 21
-16.447584
 31
0.000000
  0
LINE
  8
1
 10
17.663658
 20
-16.447584
 30
0.000000
 11
17.706501
 21
-16.471771
 31
0.000000
  0
LINE
  8
1
 10
17.706501
 20
-16.471771
 30
0.000000
 11
17.751116
 21
-16.496450
 31
0.000000
  0
LINE
  8
1
 10
17.751116
 20
-16.496450
 30
0.000000
 11
17.797520
 21
-16.521591
 31
0.000000
  0
LINE
  8
1
 10
17.797520
 20
-16.521591
 30
0.000000
 11
17.845722
 21
-16.547165
 31
0.000000
  0
LINE
  8
1
 10
17.845722
 20
-16.547165
 30
0.000000
 11
17.895731
 21
-16.573141
 31
0.000000
  0
LINE
  8
1
 10
17.895731
 20
-16.573141
 30
0.000000
 11
17.947561
 21
-16.599493
 31
0.000000
  0
LINE
  8
1
 10
17.947561
 20
-16.599493
 30
0.000000
 11
18.001223
 21
-16.626186
 31
0.000000
  0
LINE
  8
1
 10
18.001223
 20
-16.626186
 30
0.000000
 11
18.056721
 21
-16.653194
 31
0.000000
  0
LINE
  8
1
 10
18.056721
 20
-16.653194
 30
0.000000
 11
18.114069
 21
-16.680485
 31
0.000000
  0
LINE
  8
1
 10
18.114069
 20
-16.680485
 30
0.000000
 11
18.173275
 21
-16.708029
 31
0.000000
  0
LINE
  8
1
 10
18.173275
 20
-16.708029
 30
0.000000
 11
18.234348
 21
-16.735796
 31
0.000000
  0
LINE
  8
1
 10
18.234348
 20
-16.735796
 30
0.000000
 11
18.297297
 21
-16.763756
 31
0.000000
  0
LINE
  8
1
 10
18.297297
 20
-16.763756
 30
0.000000
 11
18.362127
 21
-16.791876
 31
0.000000
  0
LINE
  8
1
 10
18.362127
 20
-16.791876
 30
0.000000
 11
18.428850
 21
-16.820127
 31
0.000000
  0
LINE
  8
1
 10
18.428850
 20
-16.820127
 30
0.000000
 11
18.497467
 21
-16.848478
 31
0.000000
  0
LINE
  8
1
 10
18.497467
 20
-16.848478
 30
0.000000
 11
18.567989
 21
-16.876898
 31
0.000000
  0
LINE
  8
1
 10
18.567989
 20
-16.876898
 30
0.000000
 11
18.640423
 21
-16.905357
 31
0.000000
  0
LINE
  8
1
 10
18.640423
 20
-16.905357
 30
0.000000
 11
18.714773
 21
-16.933823
 31
0.000000
  0
LINE
  8
1
 10
18.714773
 20
-16.933823
 30
0.000000
 11
18.791044
 21
-16.962261
 31
0.000000
  0
LINE
  8
1
 10
18.791044
 20
-16.962261
 30
0.000000
 11
18.869244
 21
-16.990644
 31
0.000000
  0
LINE
  8
1
 10
18.869244
 20
-16.990644
 30
0.000000
 11
18.949373
 21
-17.018940
 31
0.000000
  0
LINE
  8
1
 10
18.949373
 20
-17.018940
 30
0.000000
 11
19.031439
 21
-17.047115
 31
0.000000
  0
LINE
  8
1
 10
19.031439
 20
-17.047115
 30
0.000000
 11
19.115446
 21
-17.075142
 31
0.000000
  0
LINE
  8
1
 10
19.115446
 20
-17.075142
 30
0.000000
 11
19.201393
 21
-17.102983
 31
0.000000
  0
LINE
  8
1
 10
19.201393
 20
-17.102983
 30
0.000000
 11
19.289289
 21
-17.130611
 31
0.000000
  0
LINE
  8
1
 10
19.289289
 20
-17.130611
 30
0.000000
 11
19.379133
 21
-17.157991
 31
0.000000
  0
LINE
  8
1
 10
19.379133
 20
-17.157991
 30
0.000000
 11
19.470930
 21
-17.185095
 31
0.000000
  0
LINE
  8
1
 10
19.470930
 20
-17.185095
 30
0.000000
 11
19.564680
 21
-17.211889
 31
0.000000
  0
LINE
  8
1
 10
19.564680
 20
-17.211889
 30
0.000000
 11
19.660383
 21
-17.238338
 31
0.000000
  0
LINE
  8
1
 10
19.660383
 20
-17.238338
 30
0.000000
 11
19.758041
 21
-17.264412
 31
0.000000
  0
LINE
  8
1
 10
19.758041
 20
-17.264412
 30
0.000000
 11
19.857658
 21
-17.290081
 31
0.000000
  0
LINE
  8
1
 10
19.857658
 20
-17.290081
 30
0.000000
 11
19.959230
 21
-17.315311
 31
0.000000
  0
LINE
  8
1
 10
19.959230
 20
-17.315311
 30
0.000000
 11
20.062759
 21
-17.340071
 31
0.000000
  0
LINE
  8
1
 10
20.062759
 20
-17.340071
 30
0.000000
 11
20.168243
 21
-17.364325
 31
0.000000
  0
LINE
  8
1
 10
20.168243
 20
-17.364325
 30
0.000000
 11
20.275681
 21
-17.388042
 31
0.000000
  0
LINE
  8
1
 10
20.275681
 20
-17.388042
 30
0.000000
 11
20.385073
 21
-17.411194
 31
0.000000
  0
LINE
  8
1
 10
20.385073
 20
-17.411194
 30
0.000000
 11
20.496416
 21
-17.433744
 31
0.000000
  0
LINE
  8
1
 10
20.496416
 20
-17.433744
 30
0.000000
 11
20.600111
 21
-17.453806
 31
0.000000
  0
LINE
  8
1
 10
20.600111
 20
-17.453806
 30
0.000000
 11
21.501068
 21
-16.331072
 31
0.000000
  0
LINE
  8
1
 10
21.501068
 20
-16.331072
 30
0.000000
 11
21.459026
 21
-16.234184
 31
0.000000
  0
LINE
  8
1
 10
21.459026
 20
-16.234184
 30
0.000000
 11
21.412895
 21
-16.130367
 31
0.000000
  0
LINE
  8
1
 10
21.412895
 20
-16.130367
 30
0.000000
 11
21.366602
 21
-16.028585
 31
0.000000
  0
LINE
  8
1
 10
21.366602
 20
-16.028585
 30
0.000000
 11
21.320179
 21
-15.928835
 31
0.000000
  0
LINE
  8
1
 10
21.320179
 20
-15.928835
 30
0.000000
 11
21.273655
 21
-15.831107
 31
0.000000
  0
LINE
  8
1
 10
21.273655
 20
-15.831107
 30
0.000000
 11
21.227060
 21
-15.735397
 31
0.000000
  0
LINE
  8
1
 10
21.227060
 20
-15.735397
 30
0.000000
 11
21.180433
 21
-15.641701
 31
0.000000
  0
LINE
  8
1
 10
21.180433
 20
-15.641701
 30
0.000000
 11
21.133799
 21
-15.550008
 31
0.000000
  0
LINE
  8
1
 10
21.133799
 20
-15.550008
 30
0.000000
 11
21.087193
 21
-15.460315
 31
0.000000
  0
LINE
  8
1
 10
21.087193
 20
-15.460315
 30
0.000000
 11
21.040642
 21
-15.372610
 31
0.000000
  0
LINE
  8
1
 10
21.040642
 20
-15.372610
 30
0.000000
 11
20.994181
 21
-15.286888
 31
0.000000
  0
LINE
  8
1
 10
20.994181
 20
-15.286888
 30
0.000000
 11
20.947840
 21
-15.203141
 31
0.000000
  0
LINE
  8
1
 10
20.947840
 20
-15.203141
 30
0.000000
 11
20.901651
 21
-15.121360
 31
0.000000
  0
LINE
  8
1
 10
20.901651
 20
-15.121360
 30
0.000000
 11
20.855642
 21
-15.041533
 31
0.000000
  0
LINE
  8
1
 10
20.855642
 20
-15.041533
 30
0.000000
 11
20.809847
 21
-14.963655
 31
0.000000
  0
LINE
  8
1
 10
20.809847
 20
-14.963655
 30
0.000000
 11
20.764292
 21
-14.887712
 31
0.000000
  0
LINE
  8
1
 10
20.764292
 20
-14.887712
 30
0.000000
 11
20.719011
 21
-14.813696
 31
0.000000
  0
LINE
  8
1
 10
20.719011
 20
-14.813696
 30
0.000000
 11
20.674032
 21
-14.741596
 31
0.000000
  0
LINE
  8
1
 10
20.674032
 20
-14.741596
 30
0.000000
 11
20.629387
 21
-14.671401
 31
0.000000
  0
LINE
  8
1
 10
20.629387
 20
-14.671401
 30
0.000000
 11
20.585104
 21
-14.603100
 31
0.000000
  0
LINE
  8
1
 10
20.585104
 20
-14.603100
 30
0.000000
 11
20.541212
 21
-14.536678
 31
0.000000
  0
LINE
  8
1
 10
20.541212
 20
-14.536678
 30
0.000000
 11
20.497742
 21
-14.472128
 31
0.000000
  0
LINE
  8
1
 10
20.497742
 20
-14.472128
 30
0.000000
 11
20.454723
 21
-14.409434
 31
0.000000
  0
LINE
  8
1
 10
20.454723
 20
-14.409434
 30
0.000000
 11
20.412184
 21
-14.348585
 31
0.000000
  0
LINE
  8
1
 10
20.412184
 20
-14.348585
 30
0.000000
 11
20.370152
 21
-14.289565
 31
0.000000
  0
LINE
  8
1
 10
20.370152
 20
-14.289565
 30
0.000000
 11
20.328659
 21
-14.232364
 31
0.000000
  0
LINE
  8
1
 10
20.328659
 20
-14.232364
 30
0.000000
 11
20.287729
 21
-14.176965
 31
0.000000
  0
LINE
  8
1
 10
20.287729
 20
-14.176965
 30
0.000000
 11
20.247395
 21
-14.123355
 31
0.000000
  0
LINE
  8
1
 10
20.247395
 20
-14.123355
 30
0.000000
 11
20.207682
 21
-14.071520
 31
0.000000
  0
LINE
  8
1
 10
20.207682
 20
-14.071520
 30
0.000000
 11
20.168617
 21
-14.021443
 31
0.000000
  0
LINE
  8
1
 10
20.168617
 20
-14.021443
 30
0.000000
 11
20.130232
 21
-13.973110
 31
0.000000
  0
LINE
  8
1
 10
20.130232
 20
-13.973110
 30
0.000000
 11
20.092550
 21
-13.926505
 31
0.000000
  0
LINE
  8
1
 10
20.092550
 20
-13.926505
 30
0.000000
 11
20.055599
 21
-13.881613
 31
0.000000
  0
LINE
  8
1
 10
20.055599
 20
-13.881613
 30
0.000000
 11
20.019409
 21
-13.838415
 31
0.000000
  0
LINE
  8
1
 10
20.019409
 20
-13.838415
 30
0.000000
 11
19.984001
 21
-13.796896
 31
0.000000
  0
LINE
  8
1
 10
19.984001
 20
-13.796896
 30
0.000000
 11
19.949408
 21
-13.757039
 31
0.000000
  0
LINE
  8
1
 10
19.949408
 20
-13.757039
 30
0.000000
 11
19.915651
 21
-13.718827
 31
0.000000
  0
LINE
  8
1
 10
19.915651
 20
-13.718827
 30
0.000000
 11
19.882759
 21
-13.682240
 31
0.000000
  0
LINE
  8
1
 10
19.882759
 20
-13.682240
 30
0.000000
 11
19.850756
 21
-13.647262
 31
0.000000
  0
LINE
  8
1
 10
19.850756
 20
-13.647262
 30
0.000000
 11
19.819668
 21
-13.613873
 31
0.000000
  0
LINE
  8
1
 10
19.819668
 20
-13.613873
 30
0.000000
 11
19.789520
 21
-13.582056
 31
0.000000
  0
LINE
  8
1
 10
19.789520
 20
-13.582056
 30
0.000000
 11
19.760338
 21
-13.551791
 31
0.000000
  0
LINE
  8
1
 10
19.760338
 20
-13.551791
 30
0.000000
 11
19.732145
 21
-13.523059
 31
0.000000
  0
LINE
  8
1
 10
19.732145
 20
-13.523059
 30
0.000000
 11
19.704969
 21
-13.495840
 31
0.000000
  0
LINE
  8
1
 10
19.704969
 20
-13.495840
 30
0.000000
 11
19.678829
 21
-13.470114
 31
0.000000
  0
LINE
  8
1
 10
19.678829
 20
-13.470114
 30
0.000000
 11
19.653753
 21
-13.445861
 31
0.000000
  0
LINE
  8
1
 10
19.653753
 20
-13.445861
 30
0.000000
 11
19.629763
 21
-13.423060
 31
0.000000
  0
LINE
  8
1
 10
19.629763
 20
-13.423060
 30
0.000000
 11
19.606882
 21
-13.401690
 31
0.000000
  0
LINE
  8
1
 10
19.606882
 20
-13.401690
 30
0.000000
 11
19.585135
 21
-13.381730
 31
0.000000
  0
LINE
  8
1
 10
19.585135
 20
-13.381730
 30
0.000000
 11
19.564541
 21
-13.363159
 31
0.000000
  0
LINE
  8
1
 10
19.564541
 20
-13.363159
 30
0.000000
 11
19.545126
 21
-13.345956
 31
0.000000
  0
LINE
  8
1
 10
19.545126
 20
-13.345956
 30
0.000000
 11
19.526911
 21
-13.330096
 31
0.000000
  0
LINE
  8
1
 10
19.526911
 20
-13.330096
 30
0.000000
 11
19.509916
 21
-13.315558
 31
0.000000
  0
LINE
  8
1
 10
19.509916
 20
-13.315558
 30
0.000000
 11
19.494167
 21
-13.302321
 31
0.000000
  0
LINE
  8
1
 10
19.494167
 20
-13.302321
 30
0.000000
 11
19.479681
 21
-13.290360
 31
0.000000
  0
LINE
  8
1
 10
19.479681
 20
-13.290360
 30
0.000000
 11
19.466480
 21
-13.279655
 31
0.000000
  0
LINE
  8
1
 10
19.466480
 20
-13.279655
 30
0.000000
 11
19.454590
 21
-13.270179
 31
0.000000
  0
LINE
  8
1
 10
19.454590
 20
-13.270179
 30
0.000000
 11
19.444021
 21
-13.261909
 31
0.000000
  0
LINE
  8
1
 10
19.444021
 20
-13.261909
 30
0.000000
 11
19.434803
 21
-13.254823
 31
0.000000
  0
LINE
  8
1
 10
19.434803
 20
-13.254823
 30
0.000000
 11
19.426949
 21
-13.248894
 31
0.000000
  0
LINE
  8
1
 10
19.426949
 20
-13.248894
 30
0.000000
 11
19.420483
 21
-13.244100
 31
0.000000
  0
LINE
  8
1
 10
19.420483
 20
-13.244100
 30
0.000000
 11
19.415419
 21
-13.240414
 31
0.000000
  0
LINE
  8
1
 10
19.415419
 20
-13.240414
 30
0.000000
 11
19.411781
 21
-13.237813
 31
0.000000
  0
LINE
  8
1
 10
19.411781
 20
-13.237813
 30
0.000000
 11
19.408848
 21
-13.235763
 31
0.000000
  0
LINE
  8
1
 10
19.408848
 20
-13.235763
 30
0.000000
 11
18.589018
 21
-12.676684
 31
0.000000
  0
LINE
  8
1
 10
18.589018
 20
-12.676684
 30
0.000000
 11
19.716885
 21
-10.839485
 31
0.000000
  0
LINE
  8
1
 10
19.716885
 20
-10.839485
 30
0.000000
 11
20.586456
 21
-11.317538
 31
0.000000
  0
LINE
  8
1
 10
20.586456
 20
-11.317538
 30
0.000000
 11
20.589613
 21
-11.319225
 31
0.000000
  0
LINE
  8
1
 10
20.589613
 20
-11.319225
 30
0.000000
 11
20.593578
 21
-11.321293
 31
0.000000
  0
LINE
  8
1
 10
20.593578
 20
-11.321293
 30
0.000000
 11
20.599155
 21
-11.324140
 31
0.000000
  0
LINE
  8
1
 10
20.599155
 20
-11.324140
 30
0.000000
 11
20.606358
 21
-11.327736
 31
0.000000
  0
LINE
  8
1
 10
20.606358
 20
-11.327736
 30
0.000000
 11
20.615198
 21
-11.332056
 31
0.000000
  0
LINE
  8
1
 10
20.615198
 20
-11.332056
 30
0.000000
 11
20.625690
 21
-11.337070
 31
0.000000
  0
LINE
  8
1
 10
20.625690
 20
-11.337070
 30
0.000000
 11
20.637848
 21
-11.342752
 31
0.000000
  0
LINE
  8
1
 10
20.637848
 20
-11.342752
 30
0.000000
 11
20.651678
 21
-11.349068
 31
0.000000
  0
LINE
  8
1
 10
20.651678
 20
-11.349068
 30
0.000000
 11
20.667200
 21
-11.355992
 31
0.000000
  0
LINE
  8
1
 10
20.667200
 20
-11.355992
 30
0.000000
 11
20.684422
 21
-11.363498
 31
0.000000
  0
LINE
  8
1
 10
20.684422
 20
-11.363498
 30
0.000000
 11
20.703352
 21
-11.371552
 31
0.000000
  0
LINE
  8
1
 10
20.703352
 20
-11.371552
 30
0.000000
 11
20.724007
 21
-11.380126
 31
0.000000
  0
LINE
  8
1
 10
20.724007
 20
-11.380126
 30
0.000000
 11
20.746393
 21
-11.389193
 31
0.000000
  0
LINE
  8
1
 10
20.746393
 20
-11.389193
 30
0.000000
 11
20.770519
 21
-11.398719
 31
0.000000
  0
LINE
  8
1
 10
20.770519
 20
-11.398719
 30
0.000000
 11
20.796400
 21
-11.408678
 31
0.000000
  0
LINE
  8
1
 10
20.796400
 20
-11.408678
 30
0.000000
 11
20.824041
 21
-11.419039
 31
0.000000
  0
LINE
  8
1
 10
20.824041
 20
-11.419039
 30
0.000000
 11
20.853453
 21
-11.429772
 31
0.000000
  0
LINE
  8
1
 10
20.853453
 20
-11.429772
 30
0.000000
 11
20.884642
 21
-11.440845
 31
0.000000
  0
LINE
  8
1
 10
20.884642
 20
-11.440845
 30
0.000000
 11
20.917618
 21
-11.452230
 31
0.000000
  0
LINE
  8
1
 10
20.917618
 20
-11.452230
 30
0.000000
 11
20.952389
 21
-11.463898
 31
0.000000
  0
LINE
  8
1
 10
20.952389
 20
-11.463898
 30
0.000000
 11
20.988960
 21
-11.475815
 31
0.000000
  0
LINE
  8
1
 10
20.988960
 20
-11.475815
 30
0.000000
 11
21.027340
 21
-11.487951
 31
0.000000
  0
LINE
  8
1
 10
21.027340
 20
-11.487951
 30
0.000000
 11
21.067535
 21
-11.500277
 31
0.000000
  0
LINE
  8
1
 10
21.067535
 20
-11.500277
 30
0.000000
 11
21.109550
 21
-11.512761
 31
0.000000
  0
LINE
  8
1
 10
21.109550
 20
-11.512761
 30
0.000000
 11
21.153393
 21
-11.525373
 31
0.000000
  0
LINE
  8
1
 10
21.153393
 20
-11.525373
 30
0.000000
 11
21.199068
 21
-11.538082
 31
0.000000
  0
LINE
  8
1
 10
21.199068
 20
-11.538082
 30
0.000000
 11
21.246580
 21
-11.550856
 31
0.000000
  0
LINE
  8
1
 10
21.246580
 20
-11.550856
 30
0.000000
 11
21.295933
 21
-11.563663
 31
0.000000
  0
LINE
  8
1
 10
21.295933
 20
-11.563663
 30
0.000000
 11
21.347130
 21
-11.576474
 31
0.000000
  0
LINE
  8
1
 10
21.347130
 20
-11.576474
 30
0.000000
 11
21.400177
 21
-11.589258
 31
0.000000
  0
LINE
  8
1
 10
21.400177
 20
-11.589258
 30
0.000000
 11
21.455076
 21
-11.601981
 31
0.000000
  0
LINE
  8
1
 10
21.455076
 20
-11.601981
 30
0.000000
 11
21.511831
 21
-11.614614
 31
0.000000
  0
LINE
  8
1
 10
21.511831
 20
-11.614614
 30
0.000000
 11
21.570444
 21
-11.627126
 31
0.000000
  0
LINE
  8
1
 10
21.570444
 20
-11.627126
 30
0.000000
 11
21.630917
 21
-11.639482
 31
0.000000
  0
LINE
  8
1
 10
21.630917
 20
-11.639482
 30
0.000000
 11
21.693251
 21
-11.651654
 31
0.000000
  0
LINE
  8
1
 10
21.693251
 20
-11.651654
 30
0.000000
 11
21.757444
 21
-11.663609
 31
0.000000
  0
LINE
  8
1
 10
21.757444
 20
-11.663609
 30
0.000000
 11
21.823505
 21
-11.675315
 31
0.000000
  0
LINE
  8
1
 10
21.823505
 20
-11.675315
 30
0.000000
 11
21.891430
 21
-11.686741
 31
0.000000
  0
LINE
  8
1
 10
21.891430
 20
-11.686741
 30
0.000000
 11
21.961216
 21
-11.697856
 31
0.000000
  0
LINE
  8
1
 10
21.961216
 20
-11.697856
 30
0.000000
 11
22.032867
 21
-11.708627
 31
0.000000
  0
LINE
  8
1
 10
22.032867
 20
-11.708627
 30
0.000000
 11
22.106380
 21
-11.719023
 31
0.000000
  0
LINE
  8
1
 10
22.106380
 20
-11.719023
 30
0.000000
 11
22.181755
 21
-11.729012
 31
0.000000
  0
LINE
  8
1
 10
22.181755
 20
-11.729012
 30
0.000000
 11
22.258991
 21
-11.738562
 31
0.000000
  0
LINE
  8
1
 10
22.258991
 20
-11.738562
 30
0.000000
 11
22.338083
 21
-11.747643
 31
0.000000
  0
LINE
  8
1
 10
22.338083
 20
-11.747643
 30
0.000000
 11
22.419031
 21
-11.756221
 31
0.000000
  0
LINE
  8
1
 10
22.419031
 20
-11.756221
 30
0.000000
 11
22.501831
 21
-11.764265
 31
0.000000
  0
LINE
  8
1
 10
22.501831
 20
-11.764265
 30
0.000000
 11
22.586481
 21
-11.771744
 31
0.000000
  0
LINE
  8
1
 10
22.586481
 20
-11.771744
 30
0.000000
 11
22.672976
 21
-11.778625
 31
0.000000
  0
LINE
  8
1
 10
22.672976
 20
-11.778625
 30
0.000000
 11
22.761312
 21
-11.784880
 31
0.000000
  0
LINE
  8
1
 10
22.761312
 20
-11.784880
 30
0.000000
 11
22.851484
 21
-11.790472
 31
0.000000
  0
LINE
  8
1
 10
22.851484
 20
-11.790472
 30
0.000000
 11
22.943491
 21
-11.795374
 31
0.000000
  0
LINE
  8
1
 10
22.943491
 20
-11.795374
 30
0.000000
 11
23.037321
 21
-11.799551
 31
0.000000
  0
LINE
  8
1
 10
23.037321
 20
-11.799551
 30
0.000000
 11
23.132975
 21
-11.802974
 31
0.000000
  0
LINE
  8
1
 10
23.132975
 20
-11.802974
 30
0.000000
 11
23.230442
 21
-11.805611
 31
0.000000
  0
LINE
  8
1
 10
23.230442
 20
-11.805611
 30
0.000000
 11
23.329716
 21
-11.807429
 31
0.000000
  0
LINE
  8
1
 10
23.329716
 20
-11.807429
 30
0.000000
 11
23.430792
 21
-11.808397
 31
0.000000
  0
LINE
  8
1
 10
23.430792
 20
-11.808397
 30
0.000000
 11
23.533661
 21
-11.808486
 31
0.000000
  0
LINE
  8
1
 10
23.533661
 20
-11.808486
 30
0.000000
 11
23.638315
 21
-11.807663
 31
0.000000
  0
LINE
  8
1
 10
23.638315
 20
-11.807663
 30
0.000000
 11
23.744751
 21
-11.805898
 31
0.000000
  0
LINE
  8
1
 10
23.744751
 20
-11.805898
 30
0.000000
 11
23.852953
 21
-11.803158
 31
0.000000
  0
LINE
  8
1
 10
23.852953
 20
-11.803158
 30
0.000000
 11
23.962914
 21
-11.799412
 31
0.000000
  0
LINE
  8
1
 10
23.962914
 20
-11.799412
 30
0.000000
 11
24.074625
 21
-11.794631
 31
0.000000
  0
LINE
  8
1
 10
24.074625
 20
-11.794631
 30
0.000000
 11
24.188080
 21
-11.788783
 31
0.000000
  0
LINE
  8
1
 10
24.188080
 20
-11.788783
 30
0.000000
 11
24.293505
 21
-11.782426
 31
0.000000
  0
LINE
  8
1
 10
24.293505
 20
-11.782426
 30
0.000000
 11
24.886946
 21
-10.470907
 31
0.000000
  0
LINE
  8
1
 10
24.886946
 20
-10.470907
 30
0.000000
 11
24.822128
 21
-10.387517
 31
0.000000
  0
LINE
  8
1
 10
24.822128
 20
-10.387517
 30
0.000000
 11
24.751629
 21
-10.298434
 31
0.000000
  0
LINE
  8
1
 10
24.751629
 20
-10.298434
 30
0.000000
 11
24.681479
 21
-10.211363
 31
0.000000
  0
LINE
  8
1
 10
24.681479
 20
-10.211363
 30
0.000000
 11
24.611706
 21
-10.126291
 31
0.000000
  0
LINE
  8
1
 10
24.611706
 20
-10.126291
 30
0.000000
 11
24.542339
 21
-10.043204
 31
0.000000
  0
LINE
  8
1
 10
24.542339
 20
-10.043204
 30
0.000000
 11
24.473406
 21
-9.962089
 31
0.000000
  0
LINE
  8
1
 10
24.473406
 20
-9.962089
 30
0.000000
 11
24.404942
 21
-9.882932
 31
0.000000
  0
LINE
  8
1
 10
24.404942
 20
-9.882932
 30
0.000000
 11
24.336969
 21
-9.805717
 31
0.000000
  0
LINE
  8
1
 10
24.336969
 20
-9.805717
 30
0.000000
 11
24.269522
 21
-9.730432
 31
0.000000
  0
LINE
  8
1
 10
24.269522
 20
-9.730432
 30
0.000000
 11
24.202623
 21
-9.657060
 31
0.000000
  0
LINE
  8
1
 10
24.202623
 20
-9.657060
 30
0.000000
 11
24.136305
 21
-9.585586
 31
0.000000
  0
LINE
  8
1
 10
24.136305
 20
-9.585586
 30
0.000000
 11
24.070591
 21
-9.515993
 31
0.000000
  0
LINE
  8
1
 10
24.070591
 20
-9.515993
 30
0.000000
 11
24.005516
 21
-9.448268
 31
0.000000
  0
LINE
  8
1
 10
24.005516
 20
-9.448268
 30
0.000000
 11
23.941101
 21
-9.382391
 31
0.000000
  0
LINE
  8
1
 10
23.941101
 20
-9.382391
 30
0.000000
 11
23.877377
 21
-9.318348
 31
0.000000
  0
LINE
  8
1
 10
23.877377
 20
-9.318348
 30
0.000000
 11
23.814365
 21
-9.256121
 31
0.000000
  0
LINE
  8
1
 10
23.814365
 20
-9.256121
 30
0.000000
 11
23.752100
 21
-9.195691
 31
0.000000
  0
LINE
  8
1
 10
23.752100
 20
-9.195691
 30
0.000000
 11
23.690605
 21
-9.137042
 31
0.000000
  0
LINE
  8
1
 10
23.690605
 20
-9.137042
 30
0.000000
 11
23.629906
 21
-9.080155
 31
0.000000
  0
LINE
  8
1
 10
23.629906
 20
-9.080155
 30
0.000000
 11
23.570028
 21
-9.025012
 31
0.000000
  0
LINE
  8
1
 10
23.570028
 20
-9.025012
 30
0.000000
 11
23.510998
 21
-8.971593
 31
0.000000
  0
LINE
  8
1
 10
23.510998
 20
-8.971593
 30
0.000000
 11
23.452839
 21
-8.919881
 31
0.000000
  0
LINE
  8
1
 10
23.452839
 20
-8.919881
 30
0.000000
 11
23.395580
 21
-8.869855
 31
0.000000
  0
LINE
  8
1
 10
23.395580
 20
-8.869855
 30
0.000000
 11
23.339245
 21
-8.821497
 31
0.000000
  0
LINE
  8
1
 10
23.339245
 20
-8.821497
 30
0.000000
 11
23.283855
 21
-8.774784
 31
0.000000
  0
LINE
  8
1
 10
23.283855
 20
-8.774784
 30
0.000000
 11
23.229441
 21
-8.729699
 31
0.000000
  0
LINE
  8
1
 10
23.229441
 20
-8.729699
 30
0.000000
 11
23.176020
 21
-8.686219
 31
0.000000
  0
LINE
  8
1
 10
23.176020
 20
-8.686219
 30
0.000000
 11
23.123619
 21
-8.644324
 31
0.000000
  0
LINE
  8
1
 10
23.123619
 20
-8.644324
 30
0.000000
 11
23.072264
 21
-8.603994
 31
0.000000
  0
LINE
  8
1
 10
23.072264
 20
-8.603994
 30
0.000000
 11
23.021975
 21
-8.565206
 31
0.000000
  0
LINE
  8
1
 10
23.021975
 20
-8.565206
 30
0.000000
 11
22.972775
 21
-8.527937
 31
0.000000
  0
LINE
  8
1
 10
22.972775
 20
-8.527937
 30
0.000000
 11
22.924685
 21
-8.492167
 31
0.000000
  0
LINE
  8
1
 10
22.924685
 20
-8.492167
 30
0.000000
 11
22.877731
 21
-8.457874
 31
0.000000
  0
LINE
  8
1
 10
22.877731
 20
-8.457874
 30
0.000000
 11
22.831936
 21
-8.425035
 31
0.000000
  0
LINE
  8
1
 10
22.831936
 20
-8.425035
 30
0.000000
 11
22.787315
 21
-8.393625
 31
0.000000
  0
LINE
  8
1
 10
22.787315
 20
-8.393625
 30
0.000000
 11
22.743896
 21
-8.363624
 31
0.000000
  0
LINE
  8
1
 10
22.743896
 20
-8.363624
 30
0.000000
 11
22.701698
 21
-8.335007
 31
0.000000
  0
LINE
  8
1
 10
22.701698
 20
-8.335007
 30
0.000000
 11
22.660740
 21
-8.307750
 31
0.000000
  0
LINE
  8
1
 10
22.660740
 20
-8.307750
 30
0.000000
 11
22.621042
 21
-8.281829
 31
0.000000
  0
LINE
  8
1
 10
22.621042
 20
-8.281829
 30
0.000000
 11
22.582628
 21
-8.257220
 31
0.000000
  0
LINE
  8
1
 10
22.582628
 20
-8.257220
 30
0.000000
 11
22.545515
 21
-8.233900
 31
0.000000
  0
LINE
  8
1
 10
22.545515
 20
-8.233900
 30
0.000000
 11
22.509724
 21
-8.211843
 31
0.000000
  0
LINE
  8
1
 10
22.509724
 20
-8.211843
 30
0.000000
 11
22.475271
 21
-8.191025
 31
0.000000
  0
LINE
  8
1
 10
22.475271
 20
-8.191025
 30
0.000000
 11
22.442179
 21
-8.171420
 31
0.000000
  0
LINE
  8
1
 10
22.442179
 20
-8.171420
 30
0.000000
 11
22.410463
 21
-8.153003
 31
0.000000
  0
LINE
  8
1
 10
22.410463
 20
-8.153003
 30
0.000000
 11
22.380142
 21
-8.135747
 31
0.000000
  0
LINE
  8
1
 10
22.380142
 20
-8.135747
 30
0.000000
 11
22.351236
 21
-8.119629
 31
0.000000
  0
LINE
  8
1
 10
22.351236
 20
-8.119629
 30
0.000000
 11
22.323759
 21
-8.104621
 31
0.000000
  0
LINE
  8
1
 10
22.323759
 20
-8.104621
 30
0.000000
 11
22.297731
 21
-8.090696
 31
0.000000
  0
LINE
  8
1
 10
22.297731
 20
-8.090696
 30
0.000000
 11
22.273167
 21
-8.077830
 31
0.000000
  0
LINE
  8
1
 10
22.273167
 20
-8.077830
 30
0.000000
 11
22.250084
 21
-8.065995
 31
0.000000
  0
LINE
  8
1
 10
22.250084
 20
-8.065995
 30
0.000000
 11
22.228497
 21
-8.055164
 31
0.000000
  0
LINE
  8
1
 10
22.228497
 20
-8.055164
 30
0.000000
 11
22.208422
 21
-8.045310
 31
0.000000
  0
LINE
  8
1
 10
22.208422
 20
-8.045310
 30
0.000000
 11
22.189875
 21
-8.036406
 31
0.000000
  0
LINE
  8
1
 10
22.189875
 20
-8.036406
 30
0.000000
 11
22.172869
 21
-8.028423
 31
0.000000
  0
LINE
  8
1
 10
22.172869
 20
-8.028423
 30
0.000000
 11
22.157421
 21
-8.021336
 31
0.000000
  0
LINE
  8
1
 10
22.157421
 20
-8.021336
 30
0.000000
 11
22.143547
 21
-8.015116
 31
0.000000
  0
LINE
  8
1
 10
22.143547
 20
-8.015116
 30
0.000000
 11
22.131254
 21
-8.009733
 31
0.000000
  0
LINE
  8
1
 10
22.131254
 20
-8.009733
 30
0.000000
 11
22.120562
 21
-8.005161
 31
0.000000
  0
LINE
  8
1
 10
22.120562
 20
-8.005161
 30
0.000000
 11
22.111481
 21
-8.001372
 31
0.000000
  0
LINE
  8
1
 10
22.111481
 20
-8.001372
 30
0.000000
 11
22.104025
 21
-7.998337
 31
0.000000
  0
LINE
  8
1
 10
22.104025
 20
-7.998337
 30
0.000000
 11
22.098204
 21
-7.996027
 31
0.000000
  0
LINE
  8
1
 10
22.098204
 20
-7.996027
 30
0.000000
 11
22.094034
 21
-7.994412
 31
0.000000
  0
LINE
  8
1
 10
22.094034
 20
-7.994412
 30
0.000000
 11
22.090683
 21
-7.993155
 31
0.000000
  0
LINE
  8
1
 10
22.090683
 20
-7.993155
 30
0.000000
 11
21.157574
 21
-7.655525
 31
0.000000
  0
LINE
  8
1
 10
21.157574
 20
-7.655525
 30
0.000000
 11
21.793114
 21
-5.595555
 31
0.000000
  0
LINE
  8
1
 10
21.793114
 20
-5.595555
 30
0.000000
 11
22.754253
 21
-5.842335
 31
0.000000
  0
LINE
  8
1
 10
22.754253
 20
-5.842335
 30
0.000000
 11
22.757729
 21
-5.843185
 31
0.000000
  0
LINE
  8
1
 10
22.757729
 20
-5.843185
 30
0.000000
 11
22.762083
 21
-5.844201
 31
0.000000
  0
LINE
  8
1
 10
22.762083
 20
-5.844201
 30
0.000000
 11
22.768194
 21
-5.845571
 31
0.000000
  0
LINE
  8
1
 10
22.768194
 20
-5.845571
 30
0.000000
 11
22.776064
 21
-5.847264
 31
0.000000
  0
LINE
  8
1
 10
22.776064
 20
-5.847264
 30
0.000000
 11
22.785702
 21
-5.849250
 31
0.000000
  0
LINE
  8
1
 10
22.785702
 20
-5.849250
 30
0.000000
 11
22.797112
 21
-5.851497
 31
0.000000
  0
LINE
  8
1
 10
22.797112
 20
-5.851497
 30
0.000000
 11
22.810299
 21
-5.853976
 31
0.000000
  0
LINE
  8
1
 10
22.810299
 20
-5.853976
 30
0.000000
 11
22.825266
 21
-5.856654
 31
0.000000
  0
LINE
  8
1
 10
22.825266
 20
-5.856654
 30
0.000000
 11
22.842022
 21
-5.859502
 31
0.000000
  0
LINE
  8
1
 10
22.842022
 20
-5.859502
 30
0.000000
 11
22.860569
 21
-5.862488
 31
0.000000
  0
LINE
  8
1
 10
22.860569
 20
-5.862488
 30
0.000000
 11
22.880909
 21
-5.865581
 31
0.000000
  0
LINE
  8
1
 10
22.880909
 20
-5.865581
 30
0.000000
 11
22.903046
 21
-5.868750
 31
0.000000
  0
LINE
  8
1
 10
22.903046
 20
-5.868750
 30
0.000000
 11
22.926985
 21
-5.871964
 31
0.000000
  0
LINE
  8
1
 10
22.926985
 20
-5.871964
 30
0.000000
 11
22.952723
 21
-5.875191
 31
0.000000
  0
LINE
  8
1
 10
22.952723
 20
-5.875191
 30
0.000000
 11
22.980267
 21
-5.878401
 31
0.000000
  0
LINE
  8
1
 10
22.980267
 20
-5.878401
 30
0.000000
 11
23.009615
 21
-5.881563
 31
0.000000
  0
LINE
  8
1
 10
23.009615
 20
-5.881563
 30
0.000000
 11
23.040773
 21
-5.884644
 31
0.000000
  0
LINE
  8
1
 10
23.040773
 20
-5.884644
 30
0.000000
 11
23.073734
 21
-5.887613
 31
0.000000
  0
LINE
  8
1
 10
23.073734
 20
-5.887613
 30
0.000000
 11
23.108507
 21
-5.890440
 31
0.000000
  0
LINE
  8
1
 10
23.108507
 20
-5.890440
 30
0.000000
 11
23.145086
 21
-5.893093
 31
0.000000
  0
LINE
  8
1
 10
23.145086
 20
-5.893093
 30
0.000000
 11
23.183472
 21
-5.895541
 31
0.000000
  0
LINE
  8
1
 10
23.183472
 20
-5.895541
 30
0.000000
 11
23.223665
 21
-5.897751
 31
0.000000
  0
LINE
  8
1
 10
23.223665
 20
-5.897751
 30
0.000000
 11
23.265663
 21
-5.899694
 31
0.000000
  0
LINE
  8
1
 10
23.265663
 20
-5.899694
 30
0.000000
 11
23.309464
 21
-5.901337
 31
0.000000
  0
LINE
  8
1
 10
23.309464
 20
-5.901337
 30
0.000000
 11
23.355064
 21
-5.902649
 31
0.000000
  0
LINE
  8
1
 10
23.355064
 20
-5.902649
 30
0.000000
 11
23.402466
 21
-5.903600
 31
0.000000
  0
LINE
  8
1
 10
23.402466
 20
-5.903600
 30
0.000000
 11
23.451660
 21
-5.904157
 31
0.000000
  0
LINE
  8
1
 10
23.451660
 20
-5.904157
 30
0.000000
 11
23.502647
 21
-5.904289
 31
0.000000
  0
LINE
  8
1
 10
23.502647
 20
-5.904289
 30
0.000000
 11
23.555424
 21
-5.903965
 31
0.000000
  0
LINE
  8
1
 10
23.555424
 20
-5.903965
 30
0.000000
 11
23.609983
 21
-5.903155
 31
0.000000
  0
LINE
  8
1
 10
23.609983
 20
-5.903155
 30
0.000000
 11
23.666321
 21
-5.901825
 31
0.000000
  0
LINE
  8
1
 10
23.666321
 20
-5.901825
 30
0.000000
 11
23.724434
 21
-5.899947
 31
0.000000
  0
LINE
  8
1
 10
23.724434
 20
-5.899947
 30
0.000000
 11
23.784317
 21
-5.897489
 31
0.000000
  0
LINE
  8
1
 10
23.784317
 20
-5.897489
 30
0.000000
 11
23.845963
 21
-5.894419
 31
0.000000
  0
LINE
  8
1
 10
23.845963
 20
-5.894419
 30
0.000000
 11
23.909365
 21
-5.890707
 31
0.000000
  0
LINE
  8
1
 10
23.909365
 20
-5.890707
 30
0.000000
 11
23.974516
 21
-5.886320
 31
0.000000
  0
LINE
  8
1
 10
23.974516
 20
-5.886320
 30
0.000000
 11
24.041412
 21
-5.881230
 31
0.000000
  0
LINE
  8
1
 10
24.041412
 20
-5.881230
 30
0.000000
 11
24.110044
 21
-5.875406
 31
0.000000
  0
LINE
  8
1
 10
24.110044
 20
-5.875406
 30
0.000000
 11
24.180403
 21
-5.868816
 31
0.000000
  0
LINE
  8
1
 10
24.180403
 20
-5.868816
 30
0.000000
 11
24.252481
 21
-5.861430
 31
0.000000
  0
LINE
  8
1
 10
24.252481
 20
-5.861430
 30
0.000000
 11
24.326271
 21
-5.853217
 31
0.000000
  0
LINE
  8
1
 10
24.326271
 20
-5.853217
 30
0.000000
 11
24.401762
 21
-5.844147
 31
0.000000
  0
LINE
  8
1
 10
24.401762
 20
-5.844147
 30
0.000000
 11
24.478945
 21
-5.834190
 31
0.000000
  0
LINE
  8
1
 10
24.478945
 20
-5.834190
 30
0.000000
 11
24.557812
 21
-5.823316
 31
0.000000
  0
LINE
  8
1
 10
24.557812
 20
-5.823316
 30
0.000000
 11
24.638350
 21
-5.811493
 31
0.000000
  0
LINE
  8
1
 10
24.638350
 20
-5.811493
 30
0.000000
 11
24.720549
 21
-5.798693
 31
0.000000
  0
LINE
  8
1
 10
24.720549
 20
-5.798693
 30
0.000000
 11
24.804399
 21
-5.784886
 31
0.000000
  0
LINE
  8
1
 10
24.804399
 20
-5.784886
 30
0.000000
 11
24.889887
 21
-5.770041
 31
0.000000
  0
LINE
  8
1
 10
24.889887
 20
-5.770041
 30
0.000000
 11
24.977005
 21
-5.754130
 31
0.000000
  0
LINE
  8
1
 10
24.977005
 20
-5.754130
 30
0.000000
 11
25.065735
 21
-5.737122
 31
0.000000
  0
LINE
  8
1
 10
25.065735
 20
-5.737122
 30
0.000000
 11
25.156069
 21
-5.718989
 31
0.000000
  0
LINE
  8
1
 10
25.156069
 20
-5.718989
 30
0.000000
 11
25.247990
 21
-5.699700
 31
0.000000
  0
LINE
  8
1
 10
25.247990
 20
-5.699700
 30
0.000000
 11
25.341490
 21
-5.679227
 31
0.000000
  0
LINE
  8
1
 10
25.341490
 20
-5.679227
 30
0.000000
 11
25.436550
 21
-5.657542
 31
0.000000
  0
LINE
  8
1
 10
25.436550
 20
-5.657542
 30
0.000000
 11
25.533159
 21
-5.634614
 31
0.000000
  0
LINE
  8
1
 10
25.533159
 20
-5.634614
 30
0.000000
 11
25.631298
 21
-5.610416
 31
0.000000
  0
LINE
  8
1
 10
25.631298
 20
-5.610416
 30
0.000000
 11
25.730959
 21
-5.584920
 31
0.000000
  0
LINE
  8
1
 10
25.730959
 20
-5.584920
 30
0.000000
 11
25.832121
 21
-5.558095
 31
0.000000
  0
LINE
  8
1
 10
25.832121
 20
-5.558095
 30
0.000000
 11
25.934772
 21
-5.529917
 31
0.000000
  0
LINE
  8
1
 10
25.934772
 20
-5.529917
 30
0.000000
 11
26.038895
 21
-5.500354
 31
0.000000
  0
LINE
  8
1
 10
26.038895
 20
-5.500354
 30
0.000000
 11
26.144468
 21
-5.469380
 31
0.000000
  0
LINE
  8
1
 10
26.144468
 20
-5.469380
 30
0.000000
 11
26.251482
 21
-5.436967
 31
0.000000
  0
LINE
  8
1
 10
26.251482
 20
-5.436967
 30
0.000000
 11
26.359919
 21
-5.403089
 31
0.000000
  0
LINE
  8
1
 10
26.359919
 20
-5.403089
 30
0.000000
 11
26.460451
 21
-5.370713
 31
0.000000
  0
LINE
  8
1
 10
26.460451
 20
-5.370713
 30
0.000000
 11
26.709085
 21
-3.952815
 31
0.000000
  0
LINE
  8
1
 10
26.709085
 20
-3.952815
 30
0.000000
 11
26.625566
 21
-3.888165
 31
0.000000
  0
LINE
  8
1
 10
26.625566
 20
-3.888165
 30
0.000000
 11
26.535128
 21
-3.819413
 31
0.000000
  0
LINE
  8
1
 10
26.535128
 20
-3.819413
 30
0.000000
 11
26.445528
 21
-3.752523
 31
0.000000
  0
LINE
  8
1
 10
26.445528
 20
-3.752523
 30
0.000000
 11
26.356791
 21
-3.687475
 31
0.000000
  0
LINE
  8
1
 10
26.356791
 20
-3.687475
 30
0.000000
 11
26.268940
 21
-3.624250
 31
0.000000
  0
LINE
  8
1
 10
26.268940
 20
-3.624250
 30
0.000000
 11
26.182001
 21
-3.562825
 31
0.000000
  0
LINE
  8
1
 10
26.182001
 20
-3.562825
 30
0.000000
 11
26.096003
 21
-3.503181
 31
0.000000
  0
LINE
  8
1
 10
26.096003
 20
-3.503181
 30
0.000000
 11
26.010962
 21
-3.445297
 31
0.000000
  0
LINE
  8
1
 10
26.010962
 20
-3.445297
 30
0.000000
 11
25.926910
 21
-3.389150
 31
0.000000
  0
LINE
  8
1
 10
25.926910
 20
-3.389150
 30
0.000000
 11
25.843868
 21
-3.334720
 31
0.000000
  0
LINE
  8
1
 10
25.843868
 20
-3.334720
 30
0.000000
 11
25.761856
 21
-3.281984
 31
0.000000
  0
LINE
  8
1
 10
25.761856
 20
-3.281984
 30
0.000000
 11
25.680902
 21
-3.230921
 31
0.000000
  0
LINE
  8
1
 10
25.680902
 20
-3.230921
 30
0.000000
 11
25.601028
 21
-3.181507
 31
0.000000
  0
LINE
  8
1
 10
25.601028
 20
-3.181507
 30
0.000000
 11
25.522253
 21
-3.133719
 31
0.000000
  0
LINE
  8
1
 10
25.522253
 20
-3.133719
 30
0.000000
 11
25.444605
 21
-3.087536
 31
0.000000
  0
LINE
  8
1
 10
25.444605
 20
-3.087536
 30
0.000000
 11
25.368099
 21
-3.042933
 31
0.000000
  0
LINE
  8
1
 10
25.368099
 20
-3.042933
 30
0.000000
 11
25.292761
 21
-2.999887
 31
0.000000
  0
LINE
  8
1
 10
25.292761
 20
-2.999887
 30
0.000000
 11
25.218613
 21
-2.958373
 31
0.000000
  0
LINE
  8
1
 10
25.218613
 20
-2.958373
 30
0.000000
 11
25.145672
 21
-2.918369
 31
0.000000
  0
LINE
  8
1
 10
25.145672
 20
-2.918369
 30
0.000000
 11
25.073963
 21
-2.879849
 31
0.000000
  0
LINE
  8
1
 10
25.073963
 20
-2.879849
 30
0.000000
 11
25.003502
 21
-2.842790
 31
0.000000
  0
LINE
  8
1
 10
25.003502
 20
-2.842790
 30
0.000000
 11
24.934311
 21
-2.807165
 31
0.000000
  0
LINE
  8
1
 10
24.934311
 20
-2.807165
 30
0.000000
 11
24.866409
 21
-2.772951
 31
0.000000
  0
LINE
  8
1
 10
24.866409
 20
-2.772951
 30
0.000000
 11
24.799818
 21
-2.740121
 31
0.000000
  0
LINE
  8
1
 10
24.799818
 20
-2.740121
 30
0.000000
 11
24.734552
 21
-2.708651
 31
0.000000
  0
LINE
  8
1
 10
24.734552
 20
-2.708651
 30
0.000000
 11
24.670633
 21
-2.678515
 31
0.000000
  0
LINE
  8
1
 10
24.670633
 20
-2.678515
 30
0.000000
 11
24.608078
 21
-2.649686
 31
0.000000
  0
LINE
  8
1
 10
24.608078
 20
-2.649686
 30
0.000000
 11
24.546906
 21
-2.622139
 31
0.000000
  0
LINE
  8
1
 10
24.546906
 20
-2.622139
 30
0.000000
 11
24.487135
 21
-2.595847
 31
0.000000
  0
LINE
  8
1
 10
24.487135
 20
-2.595847
 30
0.000000
 11
24.428778
 21
-2.570784
 31
0.000000
  0
LINE
  8
1
 10
24.428778
 20
-2.570784
 30
0.000000
 11
24.371855
 21
-2.546922
 31
0.000000
  0
LINE
  8
1
 10
24.371855
 20
-2.546922
 30
0.000000
 11
24.316381
 21
-2.524235
 31
0.000000
  0
LINE
  8
1
 10
24.316381
 20
-2.524235
 30
0.000000
 11
24.262375
 21
-2.502696
 31
0.000000
  0
LINE
  8
1
 10
24.262375
 20
-2.502696
 30
0.000000
 11
24.209850
 21
-2.482278
 31
0.000000
  0
LINE
  8
1
 10
24.209850
 20
-2.482278
 30
0.000000
 11
24.158821
 21
-2.462952
 31
0.000000
  0
LINE
  8
1
 10
24.158821
 20
-2.462952
 30
0.000000
 11
24.109304
 21
-2.444690
 31
0.000000
  0
LINE
  8
1
 10
24.109304
 20
-2.444690
 30
0.000000
 11
24.061316
 21
-2.427467
 31
0.000000
  0
LINE
  8
1
 10
24.061316
 20
-2.427467
 30
0.000000
 11
24.014864
 21
-2.411252
 31
0.000000
  0
LINE
  8
1
 10
24.014864
 20
-2.411252
 30
0.000000
 11
23.969969
 21
-2.396018
 31
0.000000
  0
LINE
  8
1
 10
23.969969
 20
-2.396018
 30
0.000000
 11
23.926641
 21
-2.381736
 31
0.000000
  0
LINE
  8
1
 10
23.926641
 20
-2.381736
 30
0.000000
 11
23.884895
 21
-2.368378
 31
0.000000
  0
LINE
  8
1
 10
23.884895
 20
-2.368378
 30
0.000000
 11
23.844744
 21
-2.355915
 31
0.000000
  0
LINE
  8
1
 10
23.844744
 20
-2.355915
 30
0.000000
 11
23.806196
 21
-2.344318
 31
0.000000
  0
LINE
  8
1
 10
23.806196
 20
-2.344318
 30
0.000000
 11
23.769268
 21
-2.333559
 31
0.000000
  0
LINE
  8
1
 10
23.769268
 20
-2.333559
 30
0.000000
 11
23.733967
 21
-2.323608
 31
0.000000
  0
LINE
  8
1
 10
23.733967
 20
-2.323608
 30
0.000000
 11
23.700308
 21
-2.314435
 31
0.000000
  0
LINE
  8
1
 10
23.700308
 20
-2.314435
 30
0.000000
 11
23.668303
 21
-2.306012
 31
0.000000
  0
LINE
  8
1
 10
23.668303
 20
-2.306012
 30
0.000000
 11
23.637955
 21
-2.298308
 31
0.000000
  0
LINE
  8
1
 10
23.637955
 20
-2.298308
 30
0.000000
 11
23.609282
 21
-2.291295
 31
0.000000
  0
LINE
  8
1
 10
23.609282
 20
-2.291295
 30
0.000000
 11
23.582289
 21
-2.284941
 31
0.000000
  0
LINE
  8
1
 10
23.582289
 20
-2.284941
 30
0.000000
 11
23.556988
 21
-2.279219
 31
0.000000
  0
LINE
  8
1
 10
23.556988
 20
-2.279219
 30
0.000000
 11
23.533386
 21
-2.274096
 31
0.000000
  0
LINE
  8
1
 10
23.533386
 20
-2.274096
 30
0.000000
 11
23.511490
 21
-2.269544
 31
0.000000
  0
LINE
  8
1
 10
23.511490
 20
-2.269544
 30
0.000000
 11
23.491312
 21
-2.265532
 31
0.000000
  0
LINE
  8
1
 10
23.491312
 20
-2.265532
 30
0.000000
 11
23.472855
 21
-2.262029
 31
0.000000
  0
LINE
  8
1
 10
23.472855
 20
-2.262029
 30
0.000000
 11
23.456131
 21
-2.259006
 31
0.000000
  0
LINE
  8
1
 10
23.456131
 20
-2.259006
 30
0.000000
 11
23.441145
 21
-2.256432
 31
0.000000
  0
LINE
  8
1
 10
23.441145
 20
-2.256432
 30
0.000000
 11
23.427900
 21
-2.254276
 31
0.000000
  0
LINE
  8
1
 10
23.427900
 20
-2.254276
 30
0.000000
 11
23.416407
 21
-2.252507
 31
0.000000
  0
LINE
  8
1
 10
23.416407
 20
-2.252507
 30
0.000000
 11
23.406670
 21
-2.251095
 31
0.000000
  0
LINE
  8
1
 10
23.406670
 20
-2.251095
 30
0.000000
 11
23.398693
 21
-2.250010
 31
0.000000
  0
LINE
  8
1
 10
23.398693
 20
-2.250010
 30
0.000000
 11
23.392481
 21
-2.249219
 31
0.000000
  0
LINE
  8
1
 10
23.392481
 20
-2.249219
 30
0.000000
 11
23.388041
 21
-2.248693
 31
0.000000
  0
LINE
  8
1
 10
23.388041
 20
-2.248693
 30
0.000000
 11
23.384481
 21
-2.248309
 31
0.000000
  0
LINE
  8
1
 10
23.384481
 20
-2.248309
 30
0.000000
 11
22.396721
 21
-2.153340
 31
0.000000
  0
LINE
  8
1
 10
22.396721
 20
-2.153340
 30
0.000000
 11
22.500000
 21
0.000000
 31
0.000000
  0
ENDSEC
  0
EOF
