  0
SECTION
  2
TABLES
  0
TABLE
  2
LAYER
  0
LAYER
  2
1
 62
7
 70
0
  6
Continuous
  0
ENDTAB
  0
ENDSEC
  0
SECTION
  2
ENTITIES
  0
LINE
  8
1
 10
17.500000
 20
0.000000
 30
0.000000
 11
18.793852
 21
0.000000
 31
0.000000
  0
LINE
  8
1
 10
18.793852
 20
0.000000
 30
0.000000
 11
18.796715
 21
0.000033
 31
0.000000
  0
LINE
  8
1
 10
18.796715
 20
0.000033
 30
0.000000
 11
18.800291
 21
0.000112
 31
0.000000
  0
LINE
  8
1
 10
18.800291
 20
0.000112
 30
0.000000
 11
18.805298
 21
0.000266
 31
0.000000
  0
LINE
  8
1
 10
18.805298
 20
0.000266
 30
0.000000
 11
18.811733
 21
0.000520
 31
0.000000
  0
LINE
  8
1
 10
18.811733
 20
0.000520
 30
0.000000
 11
18.819597
 21
0.000899
 31
0.000000
  0
LINE
  8
1
 10
18.819597
 20
0.000899
 30
0.000000
 11
18.828884
 21
0.001427
 31
0.000000
  0
LINE
  8
1
 10
18.828884
 20
0.001427
 30
0.000000
 11
18.839596
 21
0.002131
 31
0.000000
  0
LINE
  8
1
 10
18.839596
 20
0.002131
 30
0.000000
 11
18.851727
 21
0.003033
 31
0.000000
  0
LINE
  8
1
 10
18.851727
 20
0.003033
 30
0.000000
 11
18.865278
 21
0.004160
 31
0.000000
  0
LINE
  8
1
 10
18.865278
 20
0.004160
 30
0.000000
 11
18.880241
 21
0.005536
 31
0.000000
  0
LINE
  8
1
 10
18.880241
 20
0.005536
 30
0.000000
 11
18.896618
 21
0.007186
 31
0.000000
  0
LINE
  8
1
 10
18.896618
 20
0.007186
 30
0.000000
 11
18.914402
 21
0.009135
 31
0.000000
  0
LINE
  8
1
 10
18.914402
 20
0.009135
 30
0.000000
 11
18.933590
 21
0.011407
 31
0.000000
  0
LINE
  8
1
 10
18.933590
 20
0.011407
 30
0.000000
 11
18.954176
 21
0.014027
 31
0.000000
  0
LINE
  8
1
 10
18.954176
 20
0.014027
 30
0.000000
 11
18.976158
 21
0.017020
 31
0.000000
  0
LINE
  8
1
 10
18.976158
 20
0.017020
 30
0.000000
 11
18.999529
 21
0.020409
 31
0.000000
  0
LINE
  8
1
 10
18.999529
 20
0.020409
 30
0.000000
 11
19.024284
 21
0.024220
 31
0.000000
  0
LINE
  8
1
 10
19.024284
 20
0.024220
 30
0.000000
 11
19.050417
 21
0.028478
 31
0.000000
  0
LINE
  8
1
 10
19.050417
 20
0.028478
 30
0.000000
 11
19.077923
 21
0.033205
 31
0.000000
  0
LINE
  8
1
 10
19.077923
 20
0.033205
 30
0.000000
 11
19.106794
 21
0.038427
 31
0.000000
  0
LINE
  8
1
 10
19.106794
 20
0.038427
 30
0.000000
 11
19.137026
 21
0.044168
 31
0.000000
  0
LINE
  8
1
 10
19.137026
 20
0.044168
 30
0.000000
 11
19.168610
 21
0.050451
 31
0.000000
  0
LINE
  8
1
 10
19.168610
 20
0.050451
 30
0.000000
 11
19.201538
 21
0.057301
 31
0.000000
  0
LINE
  8
1
 10
19.201538
 20
0.057301
 30
0.000000
 11
19.235804
 21
0.064742
 31
0.000000
  0
LINE
  8
1
 10
19.235804
 20
0.064742
 30
0.000000
 11
19.271400
 21
0.072798
 31
0.000000
  0
LINE
  8
1
 10
19.271400
 20
0.072798
 30
0.000000
 11
19.308319
 21
0.081492
 31
0.000000
  0
LINE
  8
1
 10
19.308319
 20
0.081492
 30
0.000000
 11
19.346548
 21
0.090848
 31
0.000000
  0
LINE
  8
1
 10
19.346548
 20
0.090848
 30
0.000000
 11
19.386084
 21
0.100890
 31
0.000000
  0
LINE
  8
1
 10
19.386084
 20
0.100890
 30
0.000000
 11
19.426912
 21
0.111640
 31
0.000000
  0
LINE
  8
1
 10
19.426912
 20
0.111640
 30
0.000000
 11
19.469028
 21
0.123123
 31
0.000000
  0
LINE
  8
1
 10
19.469028
 20
0.123123
 30
0.000000
 11
19.512419
 21
0.135362
 31
0.000000
  0
LINE
  8
1
 10
19.512419
 20
0.135362
 30
0.000000
 11
19.557076
 21
0.148379
 31
0.000000
  0
LINE
  8
1
 10
19.557076
 20
0.148379
 30
0.000000
 11
19.602987
 21
0.162198
 31
0.000000
  0
LINE
  8
1
 10
19.602987
 20
0.162198
 30
0.000000
 11
19.650143
 21
0.176841
 31
0.000000
  0
LINE
  8
1
 10
19.650143
 20
0.176841
 30
0.000000
 11
19.698532
 21
0.192332
 31
0.000000
  0
LINE
  8
1
 10
19.698532
 20
0.192332
 30
0.000000
 11
19.748144
 21
0.208693
 31
0.000000
  0
LINE
  8
1
 10
19.748144
 20
0.208693
 30
0.000000
 11
19.798967
 21
0.225946
 31
0.000000
  0
LINE
  8
1
 10
19.798967
 20
0.225946
 30
0.000000
 11
19.850988
 21
0.244113
 31
0.000000
  0
LINE
  8
1
 10
19.850988
 20
0.244113
 30
0.000000
 11
19.904196
 21
0.263218
 31
0.000000
  0
LINE
  8
1
 10
19.904196
 20
0.263218
 30
0.000000
 11
19.958578
 21
0.283282
 31
0.000000
  0
LINE
  8
1
 10
19.958578
 20
0.283282
 30
0.000000
 11
20.014120
 21
0.304326
 31
0.000000
  0
LINE
  8
1
 10
20.014120
 20
0.304326
 30
0.000000
 11
20.070812
 21
0.326373
 31
0.000000
  0
LINE
  8
1
 10
20.070812
 20
0.326373
 30
0.000000
 11
20.128637
 21
0.349444
 31
0.000000
  0
LINE
  8
1
 10
20.128637
 20
0.349444
 30
0.000000
 11
20.187584
 21
0.373561
 31
0.000000
  0
LINE
  8
1
 10
20.187584
 20
0.373561
 30
0.000000
 11
20.247639
 21
0.398745
 31
0.000000
  0
LINE
  8
1
 10
20.247639
 20
0.398745
 30
0.000000
 11
20.308786
 21
0.425017
 31
0.000000
  0
LINE
  8
1
 10
20.308786
 20
0.425017
 30
0.000000
 11
20.371012
 21
0.452398
 31
0.000000
  0
LINE
  8
1
 10
20.371012
 20
0.452398
 30
0.000000
 11
20.434301
 21
0.480909
 31
0.000000
  0
LINE
  8
1
 10
20.434301
 20
0.480909
 30
0.000000
 11
20.498638
 21
0.510570
 31
0.000000
  0
LINE
  8
1
 10
20.498638
 20
0.510570
 30
0.000000
 11
20.564009
 21
0.541403
 31
0.000000
  0
LINE
  8
1
 10
20.564009
 20
0.541403
 30
0.000000
 11
20.630398
 21
0.573426
 31
0.000000
  0
LINE
  8
1
 10
20.630398
 20
0.573426
 30
0.000000
 11
20.697788
 21
0.606660
 31
0.000000
  0
LINE
  8
1
 10
20.697788
 20
0.606660
 30
0.000000
 11
20.766163
 21
0.641125
 31
0.000000
  0
LINE
  8
1
 10
20.766163
 20
0.641125
 30
0.000000
 11
20.835508
 21
0.676841
 31
0.000000
  0
LINE
  8
1
 10
20.835508
 20
0.676841
 30
0.000000
 11
20.905806
 21
0.713827
 31
0.000000
  0
LINE
  8
1
 10
20.905806
 20
0.713827
 30
0.000000
 11
20.977037
 21
0.752103
 31
0.000000
  0
LINE
  8
1
 10
20.977037
 20
0.752103
 30
0.000000
 11
21.049187
 21
0.791687
 31
0.000000
  0
LINE
  8
1
 10
21.049187
 20
0.791687
 30
0.000000
 11
21.122238
 21
0.832599
 31
0.000000
  0
LINE
  8
1
 10
21.122238
 20
0.832599
 30
0.000000
 11
21.196173
 21
0.874857
 31
0.000000
  0
LINE
  8
1
 10
21.196173
 20
0.874857
 30
0.000000
 11
21.270971
 21
0.918479
 31
0.000000
  0
LINE
  8
1
 10
21.270971
 20
0.918479
 30
0.000000
 11
21.346615
 21
0.963484
 31
0.000000
  0
LINE
  8
1
 10
21.346615
 20
0.963484
 30
0.000000
 11
21.423088
 21
1.009890
 31
0.000000
  0
LINE
  8
1
 10
21.423088
 20
1.009890
 30
0.000000
 11
21.500370
 21
1.057715
 31
0.000000
  0
LINE
  8
1
 10
21.500370
 20
1.057715
 30
0.000000
 11
21.578442
 21
1.106976
 31
0.000000
  0
LINE
  8
1
 10
21.578442
 20
1.106976
 30
0.000000
 11
21.657286
 21
1.157691
 31
0.000000
  0
LINE
  8
1
 10
21.657286
 20
1.157691
 30
0.000000
 11
21.736879
 21
1.209877
 31
0.000000
  0
LINE
  8
1
 10
21.736879
 20
1.209877
 30
0.000000
 11
21.817205
 21
1.263550
 31
0.000000
  0
LINE
  8
1
 10
21.817205
 20
1.263550
 30
0.000000
 11
21.898243
 21
1.318728
 31
0.000000
  0
LINE
  8
1
 10
21.898243
 20
1.318728
 30
0.000000
 11
21.957916
 21
1.360125
 31
0.000000
  0
LINE
  8
1
 10
21.957916
 20
1.360125
 30
0.000000
 11
21.828264
 21
2.743518
 31
0.000000
  0
LINE
  8
1
 10
21.828264
 20
2.743518
 30
0.000000
 11
21.761940
 21
2.773106
 31
0.000000
  0
LINE
  8
1
 10
21.761940
 20
2.773106
 30
0.000000
 11
21.672060
 21
2.812266
 31
0.000000
  0
LINE
  8
1
 10
21.672060
 20
2.812266
 30
0.000000
 11
21.583160
 21
2.850079
 31
0.000000
  0
LINE
  8
1
 10
21.583160
 20
2.850079
 30
0.000000
 11
21.495256
 21
2.886567
 31
0.000000
  0
LINE
  8
1
 10
21.495256
 20
2.886567
 30
0.000000
 11
21.408361
 21
2.921748
 31
0.000000
  0
LINE
  8
1
 10
21.408361
 20
2.921748
 30
0.000000
 11
21.322496
 21
2.955646
 31
0.000000
  0
LINE
  8
1
 10
21.322496
 20
2.955646
 30
0.000000
 11
21.237675
 21
2.988278
 31
0.000000
  0
LINE
  8
1
 10
21.237675
 20
2.988278
 30
0.000000
 11
21.153910
 21
3.019666
 31
0.000000
  0
LINE
  8
1
 10
21.153910
 20
3.019666
 30
0.000000
 11
21.071220
 21
3.049833
 31
0.000000
  0
LINE
  8
1
 10
21.071220
 20
3.049833
 30
0.000000
 11
20.989620
 21
3.078797
 31
0.000000
  0
LINE
  8
1
 10
20.989620
 20
3.078797
 30
0.000000
 11
20.909121
 21
3.106582
 31
0.000000
  0
LINE
  8
1
 10
20.909121
 20
3.106582
 30
0.000000
 11
20.829741
 21
3.133207
 31
0.000000
  0
LINE
  8
1
 10
20.829741
 20
3.133207
 30
0.000000
 11
20.751492
 21
3.158696
 31
0.000000
  0
LINE
  8
1
 10
20.751492
 20
3.158696
 30
0.000000
 11
20.674389
 21
3.183070
 31
0.000000
  0
LINE
  8
1
 10
20.674389
 20
3.183070
 30
0.000000
 11
20.598444
 21
3.206350
 31
0.000000
  0
LINE
  8
1
 10
20.598444
 20
3.206350
 30
0.000000
 11
20.523668
 21
3.228559
 31
0.000000
  0
LINE
  8
1
 10
20.523668
 20
3.228559
 30
0.000000
 11
20.450081
 21
3.249720
 31
0.000000
  0
LINE
  8
1
 10
20.450081
 20
3.249720
 30
0.000000
 11
20.377689
 21
3.269854
 31
0.000000
  0
LINE
  8
1
 10
20.377689
 20
3.269854
 30
0.000000
 11
20.306505
 21
3.288984
 31
0.000000
  0
LINE
  8
1
 10
20.306505
 20
3.288984
 30
0.000000
 11
20.236546
 21
3.307132
 31
0.000000
  0
LINE
  8
1
 10
20.236546
 20
3.307132
 30
0.000000
 11
20.167816
 21
3.324323
 31
0.000000
  0
LINE
  8
1
 10
20.167816
 20
3.324323
 30
0.000000
 11
20.100332
 21
3.340578
 31
0.000000
  0
LINE
  8
1
 10
20.100332
 20
3.340578
 30
0.000000
 11
20.034103
 21
3.355920
 31
0.000000
  0
LINE
  8
1
 10
20.034103
 20
3.355920
 30
0.000000
 11
19.969139
 21
3.370373
 31
0.000000
  0
LINE
  8
1
 10
19.969139
 20
3.370373
 30
0.000000
 11
19.905449
 21
3.383959
 31
0.000000
  0
LINE
  8
1
 10
19.905449
 20
3.383959
 30
0.000000
 11
19.843048
 21
3.396703
 31
0.000000
  0
LINE
  8
1
 10
19.843048
 20
3.396703
 30
0.000000
 11
19.781944
 21
3.408629
 31
0.000000
  0
LINE
  8
1
 10
19.781944
 20
3.408629
 30
0.000000
 11
19.722141
 21
3.419758
 31
0.000000
  0
LINE
  8
1
 10
19.722141
 20
3.419758
 30
0.000000
 11
19.663656
 21
3.430116
 31
0.000000
  0
LINE
  8
1
 10
19.663656
 20
3.430116
 30
0.000000
 11
19.606493
 21
3.439725
 31
0.000000
  0
LINE
  8
1
 10
19.606493
 20
3.439725
 30
0.000000
 11
19.550663
 21
3.448611
 31
0.000000
  0
LINE
  8
1
 10
19.550663
 20
3.448611
 30
0.000000
 11
19.496172
 21
3.456796
 31
0.000000
  0
LINE
  8
1
 10
19.496172
 20
3.456796
 30
0.000000
 11
19.443029
 21
3.464306
 31
0.000000
  0
LINE
  8
1
 10
19.443029
 20
3.464306
 30
0.000000
 11
19.391241
 21
3.471163
 31
0.000000
  0
LINE
  8
1
 10
19.391241
 20
3.471163
 30
0.000000
 11
19.340815
 21
3.477393
 31
0.000000
  0
LINE
  8
1
 10
19.340815
 20
3.477393
 30
0.000000
 11
19.291759
 21
3.483019
 31
0.000000
  0
LINE
  8
1
 10
19.291759
 20
3.483019
 30
0.000000
 11
19.244080
 21
3.488067
 31
0.000000
  0
LINE
  8
1
 10
19.244080
 20
3.488067
 30
0.000000
 11
19.197783
 21
3.492560
 31
0.000000
  0
LINE
  8
1
 10
19.197783
 20
3.492560
 30
0.000000
 11
19.152874
 21
3.496523
 31
0.000000
  0
LINE
  8
1
 10
19.152874
 20
3.496523
 30
0.000000
 11
19.109358
 21
3.499980
 31
0.000000
  0
LINE
  8
1
 10
19.109358
 20
3.499980
 30
0.000000
 11
19.067242
 21
3.502958
 31
0.000000
  0
LINE
  8
1
 10
19.067242
 20
3.502958
 30
0.000000
 11
19.026529
 21
3.505478
 31
0.000000
  0
LINE
  8
1
 10
19.026529
 20
3.505478
 30
0.000000
 11
18.987228
 21
3.507568
 31
0.000000
  0
LINE
  8
1
 10
18.987228
 20
3.507568
 30
0.000000
 11
18.949337
 21
3.509251
 31
0.000000
  0
LINE
  8
1
 10
18.949337
 20
3.509251
 30
0.000000
 11
18.912863
 21
3.510552
 31
0.000000
  0
LINE
  8
1
 10
18.912863
 20
3.510552
 30
0.000000
 11
18.877811
 21
3.511497
 31
0.000000
  0
LINE
  8
1
 10
18.877811
 20
3.511497
 30
0.000000
 11
18.844183
 21
3.512110
 31
0.000000
  0
LINE
  8
1
 10
18.844183
 20
3.512110
 30
0.000000
 11
18.811981
 21
3.512415
 31
0.000000
  0
LINE
  8
1
 10
18.811981
 20
3.512415
 30
0.000000
 11
18.781210
 21
3.512439
 31
0.000000
  0
LINE
  8
1
 10
18.781210
 20
3.512439
 30
0.000000
 11
18.751871
 21
3.512205
 31
0.000000
  0
LINE
  8
1
 10
18.751871
 20
3.512205
 30
0.000000
 11
18.723967
 21
3.511739
 31
0.000000
  0
LINE
  8
1
 10
18.723967
 20
3.511739
 30
0.000000
 11
18.697498
 21
3.511066
 31
0.000000
  0
LINE
  8
1
 10
18.697498
 20
3.511066
 30
0.000000
 11
18.672464
 21
3.510211
 31
0.000000
  0
LINE
  8
1
 10
18.672464
 20
3.510211
 30
0.000000
 11
18.648870
 21
3.509200
 31
0.000000
  0
LINE
  8
1
 10
18.648870
 20
3.509200
 30
0.000000
 11
18.626717
 21
3.508056
 31
0.000000
  0
LINE
  8
1
 10
18.626717
 20
3.508056
 30
0.000000
 11
18.606001
 21
3.506805
 31
0.000000
  0
LINE
  8
1
 10
18.606001
 20
3.506805
 30
0.000000
 11
18.586725
 21
3.505472
 31
0.000000
  0
LINE
  8
1
 10
18.586725
 20
3.505472
 30
0.000000
 11
18.568890
 21
3.504082
 31
0.000000
  0
LINE
  8
1
 10
18.568890
 20
3.504082
 30
0.000000
 11
18.552490
 21
3.502661
 31
0.000000
  0
LINE
  8
1
 10
18.552490
 20
3.502661
 30
0.000000
 11
18.537533
 21
3.501233
 31
0.000000
  0
LINE
  8
1
 10
18.537533
 20
3.501233
 30
0.000000
 11
18.524008
 21
3.499822
 31
0.000000
  0
LINE
  8
1
 10
18.524008
 20
3.499822
 30
0.000000
 11
18.511921
 21
3.498455
 31
0.000000
  0
LINE
  8
1
 10
18.511921
 20
3.498455
 30
0.000000
 11
18.501265
 21
3.497156
 31
0.000000
  0
LINE
  8
1
 10
18.501265
 20
3.497156
 30
0.000000
 11
18.492041
 21
3.495949
 31
0.000000
  0
LINE
  8
1
 10
18.492041
 20
3.495949
 30
0.000000
 11
18.484243
 21
3.494860
 31
0.000000
  0
LINE
  8
1
 10
18.484243
 20
3.494860
 30
0.000000
 11
18.477873
 21
3.493914
 31
0.000000
  0
LINE
  8
1
 10
18.477873
 20
3.493914
 30
0.000000
 11
18.472925
 21
3.493135
 31
0.000000
  0
LINE
  8
1
 10
18.472925
 20
3.493135
 30
0.000000
 11
18.469397
 21
3.492548
 31
0.000000
  0
LINE
  8
1
 10
18.469397
 20
3.492548
 30
0.000000
 11
18.466578
 21
3.492049
 31
0.000000
  0
LINE
  8
1
 10
18.466578
 20
3.492049
 30
0.000000
 11
17.195257
 21
3.251641
 31
0.000000
  0
LINE
  8
1
 10
17.195257
 20
3.251641
 30
0.000000
 11
16.643490
 21
5.407797
 31
0.000000
  0
LINE
  8
1
 10
16.643490
 20
5.407797
 30
0.000000
 11
17.874016
 21
5.807620
 31
0.000000
  0
LINE
  8
1
 10
17.874016
 20
5.807620
 30
0.000000
 11
17.876728
 21
5.808536
 31
0.000000
  0
LINE
  8
1
 10
17.876728
 20
5.808536
 30
0.000000
 11
17.880106
 21
5.809717
 31
0.000000
  0
LINE
  8
1
 10
17.880106
 20
5.809717
 30
0.000000
 11
17.884819
 21
5.811410
 31
0.000000
  0
LINE
  8
1
 10
17.884819
 20
5.811410
 30
0.000000
 11
17.890862
 21
5.813640
 31
0.000000
  0
LINE
  8
1
 10
17.890862
 20
5.813640
 30
0.000000
 11
17.898224
 21
5.816431
 31
0.000000
  0
LINE
  8
1
 10
17.898224
 20
5.816431
 30
0.000000
 11
17.906893
 21
5.819803
 31
0.000000
  0
LINE
  8
1
 10
17.906893
 20
5.819803
 30
0.000000
 11
17.916862
 21
5.823781
 31
0.000000
  0
LINE
  8
1
 10
17.916862
 20
5.823781
 30
0.000000
 11
17.928120
 21
5.828389
 31
0.000000
  0
LINE
  8
1
 10
17.928120
 20
5.828389
 30
0.000000
 11
17.940660
 21
5.833648
 31
0.000000
  0
LINE
  8
1
 10
17.940660
 20
5.833648
 30
0.000000
 11
17.954466
 21
5.839581
 31
0.000000
  0
LINE
  8
1
 10
17.954466
 20
5.839581
 30
0.000000
 11
17.969532
 21
5.846211
 31
0.000000
  0
LINE
  8
1
 10
17.969532
 20
5.846211
 30
0.000000
 11
17.985844
 21
5.853559
 31
0.000000
  0
LINE
  8
1
 10
17.985844
 20
5.853559
 30
0.000000
 11
18.003389
 21
5.861650
 31
0.000000
  0
LINE
  8
1
 10
18.003389
 20
5.861650
 30
0.000000
 11
18.022158
 21
5.870503
 31
0.000000
  0
LINE
  8
1
 10
18.022158
 20
5.870503
 30
0.000000
 11
18.042139
 21
5.880142
 31
0.000000
  0
LINE
  8
1
 10
18.042139
 20
5.880142
 30
0.000000
 11
18.063320
 21
5.890588
 31
0.000000
  0
LINE
  8
1
 10
18.063320
 20
5.890588
 30
0.000000
 11
18.085686
 21
5.901862
 31
0.000000
  0
LINE
  8
1
 10
18.085686
 20
5.901862
 30
0.000000
 11
18.109224
 21
5.913987
 31
0.000000
  0
LINE
  8
1
 10
18.109224
 20
5.913987
 30
0.000000
 11
18.133923
 21
5.926982
 31
0.000000
  0
LINE
  8
1
 10
18.133923
 20
5.926982
 30
0.000000
 11
18.159767
 21
5.940870
 31
0.000000
  0
LINE
  8
1
 10
18.159767
 20
5.940870
 30
0.000000
 11
18.186745
 21
5.955672
 31
0.000000
  0
LINE
  8
1
 10
18.186745
 20
5.955672
 30
0.000000
 11
18.214842
 21
5.971408
 31
0.000000
  0
LINE
  8
1
 10
18.214842
 20
5.971408
 30
0.000000
 11
18.244041
 21
5.988099
 31
0.000000
  0
LINE
  8
1
 10
18.244041
 20
5.988099
 30
0.000000
 11
18.274330
 21
6.005764
 31
0.000000
  0
LINE
  8
1
 10
18.274330
 20
6.005764
 30
0.000000
 11
18.305696
 21
6.024426
 31
0.000000
  0
LINE
  8
1
 10
18.305696
 20
6.024426
 30
0.000000
 11
18.338121
 21
6.044102
 31
0.000000
  0
LINE
  8
1
 10
18.338121
 20
6.044102
 30
0.000000
 11
18.371588
 21
6.064814
 31
0.000000
  0
LINE
  8
1
 10
18.371588
 20
6.064814
 30
0.000000
 11
18.406084
 21
6.086581
 31
0.000000
  0
LINE
  8
1
 10
18.406084
 20
6.086581
 30
0.000000
 11
18.441593
 21
6.109422
 31
0.000000
  0
LINE
  8
1
 10
18.441593
 20
6.109422
 30
0.000000
 11
18.478100
 21
6.133358
 31
0.000000
  0
LINE
  8
1
 10
18.478100
 20
6.133358
 30
0.000000
 11
18.515585
 21
6.158406
 31
0.000000
  0
LINE
  8
1
 10
18.515585
 20
6.158406
 30
0.000000
 11
18.554033
 21
6.184586
 31
0.000000
  0
LINE
  8
1
 10
18.554033
 20
6.184586
 30
0.000000
 11
18.593428
 21
6.211916
 31
0.000000
  0
LINE
  8
1
 10
18.593428
 20
6.211916
 30
0.000000
 11
18.633749
 21
6.240414
 31
0.000000
  0
LINE
  8
1
 10
18.633749
 20
6.240414
 30
0.000000
 11
18.674984
 21
6.270100
 31
0.000000
  0
LINE
  8
1
 10
18.674984
 20
6.270100
 30
0.000000
 11
18.717112
 21
6.300991
 31
0.000000
  0
LINE
  8
1
 10
18.717112
 20
6.300991
 30
0.000000
 11
18.760117
 21
6.333105
 31
0.000000
  0
LINE
  8
1
 10
18.760117
 20
6.333105
 30
0.000000
 11
18.803978
 21
6.366458
 31
0.000000
  0
LINE
  8
1
 10
18.803978
 20
6.366458
 30
0.000000
 11
18.848677
 21
6.401070
 31
0.000000
  0
LINE
  8
1
 10
18.848677
 20
6.401070
 30
0.000000
 11
18.894197
 21
6.436957
 31
0.000000
  0
LINE
  8
1
 10
18.894197
 20
6.436957
 30
0.000000
 11
18.940517
 21
6.474135
 31
0.000000
  0
LINE
  8
1
 10
18.940517
 20
6.474135
 30
0.000000
 11
18.987623
 21
6.512621
 31
0.000000
  0
LINE
  8
1
 10
18.987623
 20
6.512621
 30
0.000000
 11
19.035488
 21
6.552433
 31
0.000000
  0
LINE
  8
1
 10
19.035488
 20
6.552433
 30
0.000000
 11
19.084097
 21
6.593585
 31
0.000000
  0
LINE
  8
1
 10
19.084097
 20
6.593585
 30
0.000000
 11
19.133430
 21
6.636094
 31
0.000000
  0
LINE
  8
1
 10
19.133430
 20
6.636094
 30
0.000000
 11
19.183466
 21
6.679976
 31
0.000000
  0
LINE
  8
1
 10
19.183466
 20
6.679976
 30
0.000000
 11
19.234184
 21
6.725245
 31
0.000000
  0
LINE
  8
1
 10
19.234184
 20
6.725245
 30
0.000000
 11
19.285566
 21
6.771918
 31
0.000000
  0
LINE
  8
1
 10
19.285566
 20
6.771918
 30
0.000000
 11
19.337589
 21
6.820009
 31
0.000000
  0
LINE
  8
1
 10
19.337589
 20
6.820009
 30
0.000000
 11
19.390232
 21
6.869533
 31
0.000000
  0
LINE
  8
1
 10
19.390232
 20
6.869533
 30
0.000000
 11
19.443476
 21
6.920504
 31
0.000000
  0
LINE
  8
1
 10
19.443476
 20
6.920504
 30
0.000000
 11
19.497299
 21
6.972937
 31
0.000000
  0
LINE
  8
1
 10
19.497299
 20
6.972937
 30
0.000000
 11
19.551676
 21
7.026844
 31
0.000000
  0
LINE
  8
1
 10
19.551676
 20
7.026844
 30
0.000000
 11
19.606590
 21
7.082241
 31
0.000000
  0
LINE
  8
1
 10
19.606590
 20
7.082241
 30
0.000000
 11
19.662018
 21
7.139140
 31
0.000000
  0
LINE
  8
1
 10
19.662018
 20
7.139140
 30
0.000000
 11
19.717936
 21
7.197554
 31
0.000000
  0
LINE
  8
1
 10
19.717936
 20
7.197554
 30
0.000000
 11
19.774323
 21
7.257496
 31
0.000000
  0
LINE
  8
1
 10
19.774323
 20
7.257496
 30
0.000000
 11
19.831156
 21
7.318979
 31
0.000000
  0
LINE
  8
1
 10
19.831156
 20
7.318979
 30
0.000000
 11
19.888412
 21
7.382016
 31
0.000000
  0
LINE
  8
1
 10
19.888412
 20
7.382016
 30
0.000000
 11
19.946072
 21
7.446618
 31
0.000000
  0
LINE
  8
1
 10
19.946072
 20
7.446618
 30
0.000000
 11
20.004105
 21
7.512795
 31
0.000000
  0
LINE
  8
1
 10
20.004105
 20
7.512795
 30
0.000000
 11
20.062494
 21
7.580561
 31
0.000000
  0
LINE
  8
1
 10
20.062494
 20
7.580561
 30
0.000000
 11
20.121216
 21
7.649927
 31
0.000000
  0
LINE
  8
1
 10
20.121216
 20
7.649927
 30
0.000000
 11
20.180244
 21
7.720902
 31
0.000000
  0
LINE
  8
1
 10
20.180244
 20
7.720902
 30
0.000000
 11
20.239557
 21
7.793499
 31
0.000000
  0
LINE
  8
1
 10
20.239557
 20
7.793499
 30
0.000000
 11
20.299129
 21
7.867727
 31
0.000000
  0
LINE
  8
1
 10
20.299129
 20
7.867727
 30
0.000000
 11
20.358938
 21
7.943595
 31
0.000000
  0
LINE
  8
1
 10
20.358938
 20
7.943595
 30
0.000000
 11
20.418959
 21
8.021114
 31
0.000000
  0
LINE
  8
1
 10
20.418959
 20
8.021114
 30
0.000000
 11
20.462917
 21
8.078925
 31
0.000000
  0
LINE
  8
1
 10
20.462917
 20
8.078925
 30
0.000000
 11
19.912121
 21
9.354546
 31
0.000000
  0
LINE
  8
1
 10
19.912121
 20
9.354546
 30
0.000000
 11
19.839897
 21
9.362189
 31
0.000000
  0
LINE
  8
1
 10
19.839897
 20
9.362189
 30
0.000000
 11
19.742315
 21
9.371658
 31
0.000000
  0
LINE
  8
1
 10
19.742315
 20
9.371658
 30
0.000000
 11
19.646082
 21
9.380149
 31
0.000000
  0
LINE
  8
1
 10
19.646082
 20
9.380149
 30
0.000000
 11
19.551205
 21
9.387688
 31
0.000000
  0
LINE
  8
1
 10
19.551205
 20
9.387688
 30
0.000000
 11
19.457691
 21
9.394296
 31
0.000000
  0
LINE
  8
1
 10
19.457691
 20
9.394296
 30
0.000000
 11
19.365555
 21
9.400000
 31
0.000000
  0
LINE
  8
1
 10
19.365555
 20
9.400000
 30
0.000000
 11
19.274799
 21
9.404823
 31
0.000000
  0
LINE
  8
1
 10
19.274799
 20
9.404823
 30
0.000000
 11
19.185434
 21
9.408792
 31
0.000000
  0
LINE
  8
1
 10
19.185434
 20
9.408792
 30
0.000000
 11
19.097471
 21
9.411929
 31
0.000000
  0
LINE
  8
1
 10
19.097471
 20
9.411929
 30
0.000000
 11
19.010914
 21
9.414260
 31
0.000000
  0
LINE
  8
1
 10
19.010914
 20
9.414260
 30
0.000000
 11
18.925770
 21
9.415809
 31
0.000000
  0
LINE
  8
1
 10
18.925770
 20
9.415809
 30
0.000000
 11
18.842045
 21
9.416601
 31
0.000000
  0
LINE
  8
1
 10
18.842045
 20
9.416601
 30
0.000000
 11
18.759750
 21
9.416662
 31
0.000000
  0
LINE
  8
1
 10
18.759750
 20
9.416662
 30
0.000000
 11
18.678888
 21
9.416017
 31
0.000000
  0
LINE
  8
1
 10
18.678888
 20
9.416017
 30
0.000000
 11
18.599466
 21
9.414689
 31
0.000000
  0
LINE
  8
1
 10
18.599466
 20
9.414689
 30
0.000000
 11
18.521488
 21
9.412704
 31
0.000000
  0
LINE
  8
1
 10
18.521488
 20
9.412704
 30
0.000000
 11
18.444963
 21
9.410089
 31
0.000000
  0
LINE
  8
1
 10
18.444963
 20
9.410089
 30
0.000000
 11
18.369894
 21
9.406868
 31
0.000000
  0
LINE
  8
1
 10
18.369894
 20
9.406868
 30
0.000000
 11
18.296282
 21
9.403065
 31
0.000000
  0
LINE
  8
1
 10
18.296282
 20
9.403065
 30
0.000000
 11
18.224138
 21
9.398706
 31
0.000000
  0
LINE
  8
1
 10
18.224138
 20
9.398706
 30
0.000000
 11
18.153461
 21
9.393817
 31
0.000000
  0
LINE
  8
1
 10
18.153461
 20
9.393817
 30
0.000000
 11
18.084257
 21
9.388422
 31
0.000000
  0
LINE
  8
1
 10
18.084257
 20
9.388422
 30
0.000000
 11
18.016527
 21
9.382547
 31
0.000000
  0
LINE
  8
1
 10
18.016527
 20
9.382547
 30
0.000000
 11
17.950275
 21
9.376218
 31
0.000000
  0
LINE
  8
1
 10
17.950275
 20
9.376218
 30
0.000000
 11
17.885506
 21
9.369459
 31
0.000000
  0
LINE
  8
1
 10
17.885506
 20
9.369459
 30
0.000000
 11
17.822222
 21
9.362296
 31
0.000000
  0
LINE
  8
1
 10
17.822222
 20
9.362296
 30
0.000000
 11
17.760422
 21
9.354755
 31
0.000000
  0
LINE
  8
1
 10
17.760422
 20
9.354755
 30
0.000000
 11
17.700108
 21
9.346860
 31
0.000000
  0
LINE
  8
1
 10
17.700108
 20
9.346860
 30
0.000000
 11
17.641285
 21
9.338638
 31
0.000000
  0
LINE
  8
1
 10
17.641285
 20
9.338638
 30
0.000000
 11
17.583950
 21
9.330113
 31
0.000000
  0
LINE
  8
1
 10
17.583950
 20
9.330113
 30
0.000000
 11
17.528107
 21
9.321311
 31
0.000000
  0
LINE
  8
1
 10
17.528107
 20
9.321311
 30
0.000000
 11
17.473753
 21
9.312257
 31
0.000000
  0
LINE
  8
1
 10
17.473753
 20
9.312257
 30
0.000000
 11
17.420889
 21
9.302977
 31
0.000000
  0
LINE
  8
1
 10
17.420889
 20
9.302977
 30
0.000000
 11
17.369516
 21
9.293495
 31
0.000000
  0
LINE
  8
1
 10
17.369516
 20
9.293495
 30
0.000000
 11
17.319635
 21
9.283837
 31
0.000000
  0
LINE
  8
1
 10
17.319635
 20
9.283837
 30
0.000000
 11
17.271242
 21
9.274030
 31
0.000000
  0
LINE
  8
1
 10
17.271242
 20
9.274030
 30
0.000000
 11
17.224337
 21
9.264096
 31
0.000000
  0
LINE
  8
1
 10
17.224337
 20
9.264096
 30
0.000000
 11
17.178915
 21
9.254063
 31
0.000000
  0
LINE
  8
1
 10
17.178915
 20
9.254063
 30
0.000000
 11
17.134979
 21
9.243955
 31
0.000000
  0
LINE
  8
1
 10
17.134979
 20
9.243955
 30
0.000000
 11
17.092525
 21
9.233795
 31
0.000000
  0
LINE
  8
1
 10
17.092525
 20
9.233795
 30
0.000000
 11
17.051552
 21
9.223613
 31
0.000000
  0
LINE
  8
1
 10
17.051552
 20
9.223613
 30
0.000000
 11
17.012053
 21
9.213428
 31
0.000000
  0
LINE
  8
1
 10
17.012053
 20
9.213428
 30
0.000000
 11
16.974028
 21
9.203272
 31
0.000000
  0
LINE
  8
1
 10
16.974028
 20
9.203272
 30
0.000000
 11
16.937471
 21
9.193163
 31
0.000000
  0
LINE
  8
1
 10
16.937471
 20
9.193163
 30
0.000000
 11
16.902380
 21
9.183129
 31
0.000000
  0
LINE
  8
1
 10
16.902380
 20
9.183129
 30
0.000000
 11
16.868753
 21
9.173197
 31
0.000000
  0
LINE
  8
1
 10
16.868753
 20
9.173197
 30
0.000000
 11
16.836582
 21
9.163387
 31
0.000000
  0
LINE
  8
1
 10
16.836582
 20
9.163387
 30
0.000000
 11
16.805862
 21
9.153728
 31
0.000000
  0
LINE
  8
1
 10
16.805862
 20
9.153728
 30
0.000000
 11
16.776588
 21
9.144240
 31
0.000000
  0
LINE
  8
1
 10
16.776588
 20
9.144240
 30
0.000000
 11
16.748758
 21
9.134953
 31
0.000000
  0
LINE
  8
1
 10
16.748758
 20
9.134953
 30
0.000000
 11
16.722363
 21
9.125886
 31
0.000000
  0
LINE
  8
1
 10
16.722363
 20
9.125886
 30
0.000000
 11
16.697397
 21
9.117067
 31
0.000000
  0
LINE
  8
1
 10
16.697397
 20
9.117067
 30
0.000000
 11
16.673855
 21
9.108519
 31
0.000000
  0
LINE
  8
1
 10
16.673855
 20
9.108519
 30
0.000000
 11
16.651728
 21
9.100266
 31
0.000000
  0
LINE
  8
1
 10
16.651728
 20
9.100266
 30
0.000000
 11
16.631010
 21
9.092331
 31
0.000000
  0
LINE
  8
1
 10
16.631010
 20
9.092331
 30
0.000000
 11
16.611696
 21
9.084741
 31
0.000000
  0
LINE
  8
1
 10
16.611696
 20
9.084741
 30
0.000000
 11
16.593777
 21
9.077517
 31
0.000000
  0
LINE
  8
1
 10
16.593777
 20
9.077517
 30
0.000000
 11
16.577242
 21
9.070683
 31
0.000000
  0
LINE
  8
1
 10
16.577242
 20
9.070683
 30
0.000000
 11
16.562086
 21
9.064263
 31
0.000000
  0
LINE
  8
1
 10
16.562086
 20
9.064263
 30
0.000000
 11
16.548302
 21
9.058283
 31
0.000000
  0
LINE
  8
1
 10
16.548302
 20
9.058283
 30
0.000000
 11
16.535873
 21
9.052762
 31
0.000000
  0
LINE
  8
1
 10
16.535873
 20
9.052762
 30
0.000000
 11
16.524801
 21
9.047727
 31
0.000000
  0
LINE
  8
1
 10
16.524801
 20
9.047727
 30
0.000000
 11
16.515068
 21
9.043198
 31
0.000000
  0
LINE
  8
1
 10
16.515068
 20
9.043198
 30
0.000000
 11
16.506668
 21
9.039200
 31
0.000000
  0
LINE
  8
1
 10
16.506668
 20
9.039200
 30
0.000000
 11
16.499590
 21
9.035755
 31
0.000000
  0
LINE
  8
1
 10
16.499590
 20
9.035755
 30
0.000000
 11
16.493822
 21
9.032887
 31
0.000000
  0
LINE
  8
1
 10
16.493822
 20
9.032887
 30
0.000000
 11
16.489357
 21
9.030617
 31
0.000000
  0
LINE
  8
1
 10
16.489357
 20
9.030617
 30
0.000000
 11
16.486183
 21
9.028968
 31
0.000000
  0
LINE
  8
1
 10
16.486183
 20
9.028968
 30
0.000000
 11
16.483656
 21
9.027622
 31
0.000000
  0
LINE
  8
1
 10
16.483656
 20
9.027622
 30
0.000000
 11
15.348848
 21
8.406120
 31
0.000000
  0
LINE
  8
1
 10
15.348848
 20
8.406120
 30
0.000000
 11
14.157798
 21
10.286242
 31
0.000000
  0
LINE
  8
1
 10
14.157798
 20
10.286242
 30
0.000000
 11
15.204546
 21
11.046749
 31
0.000000
  0
LINE
  8
1
 10
15.204546
 20
11.046749
 30
0.000000
 11
15.206842
 21
11.048458
 31
0.000000
  0
LINE
  8
1
 10
15.206842
 20
11.048458
 30
0.000000
 11
15.209689
 21
11.050625
 31
0.000000
  0
LINE
  8
1
 10
15.209689
 20
11.050625
 30
0.000000
 11
15.213649
 21
11.053692
 31
0.000000
  0
LINE
  8
1
 10
15.213649
 20
11.053692
 30
0.000000
 11
15.218706
 21
11.057680
 31
0.000000
  0
LINE
  8
1
 10
15.218706
 20
11.057680
 30
0.000000
 11
15.224846
 21
11.062609
 31
0.000000
  0
LINE
  8
1
 10
15.224846
 20
11.062609
 30
0.000000
 11
15.232048
 21
11.068495
 31
0.000000
  0
LINE
  8
1
 10
15.232048
 20
11.068495
 30
0.000000
 11
15.240301
 21
11.075360
 31
0.000000
  0
LINE
  8
1
 10
15.240301
 20
11.075360
 30
0.000000
 11
15.249584
 21
11.083220
 31
0.000000
  0
LINE
  8
1
 10
15.249584
 20
11.083220
 30
0.000000
 11
15.259886
 21
11.092098
 31
0.000000
  0
LINE
  8
1
 10
15.259886
 20
11.092098
 30
0.000000
 11
15.271182
 21
11.102006
 31
0.000000
  0
LINE
  8
1
 10
15.271182
 20
11.102006
 30
0.000000
 11
15.283462
 21
11.112967
 31
0.000000
  0
LINE
  8
1
 10
15.283462
 20
11.112967
 30
0.000000
 11
15.296703
 21
11.124997
 31
0.000000
  0
LINE
  8
1
 10
15.296703
 20
11.124997
 30
0.000000
 11
15.310891
 21
11.138113
 31
0.000000
  0
LINE
  8
1
 10
15.310891
 20
11.138113
 30
0.000000
 11
15.326006
 21
11.152333
 31
0.000000
  0
LINE
  8
1
 10
15.326006
 20
11.152333
 30
0.000000
 11
15.342031
 21
11.167675
 31
0.000000
  0
LINE
  8
1
 10
15.342031
 20
11.167675
 30
0.000000
 11
15.358946
 21
11.184155
 31
0.000000
  0
LINE
  8
1
 10
15.358946
 20
11.184155
 30
0.000000
 11
15.376733
 21
11.201788
 31
0.000000
  0
LINE
  8
1
 10
15.376733
 20
11.201788
 30
0.000000
 11
15.395372
 21
11.220592
 31
0.000000
  0
LINE
  8
1
 10
15.395372
 20
11.220592
 30
0.000000
 11
15.414846
 21
11.240585
 31
0.000000
  0
LINE
  8
1
 10
15.414846
 20
11.240585
 30
0.000000
 11
15.435135
 21
11.261780
 31
0.000000
  0
LINE
  8
1
 10
15.435135
 20
11.261780
 30
0.000000
 11
15.456219
 21
11.284194
 31
0.000000
  0
LINE
  8
1
 10
15.456219
 20
11.284194
 30
0.000000
 11
15.478077
 21
11.307841
 31
0.000000
  0
LINE
  8
1
 10
15.478077
 20
11.307841
 30
0.000000
 11
15.500690
 21
11.332739
 31
0.000000
  0
LINE
  8
1
 10
15.500690
 20
11.332739
 30
0.000000
 11
15.524037
 21
11.358899
 31
0.000000
  0
LINE
  8
1
 10
15.524037
 20
11.358899
 30
0.000000
 11
15.548101
 21
11.386339
 31
0.000000
  0
LINE
  8
1
 10
15.548101
 20
11.386339
 30
0.000000
 11
15.572859
 21
11.415073
 31
0.000000
  0
LINE
  8
1
 10
15.572859
 20
11.415073
 30
0.000000
 11
15.598288
 21
11.445113
 31
0.000000
  0
LINE
  8
1
 10
15.598288
 20
11.445113
 30
0.000000
 11
15.624370
 21
11.476476
 31
0.000000
  0
LINE
  8
1
 10
15.624370
 20
11.476476
 30
0.000000
 11
15.651082
 21
11.509171
 31
0.000000
  0
LINE
  8
1
 10
15.651082
 20
11.509171
 30
0.000000
 11
15.678405
 21
11.543217
 31
0.000000
  0
LINE
  8
1
 10
15.678405
 20
11.543217
 30
0.000000
 11
15.706315
 21
11.578622
 31
0.000000
  0
LINE
  8
1
 10
15.706315
 20
11.578622
 30
0.000000
 11
15.734792
 21
11.615401
 31
0.000000
  0
LINE
  8
1
 10
15.734792
 20
11.615401
 30
0.000000
 11
15.763812
 21
11.653567
 31
0.000000
  0
LINE
  8
1
 10
15.763812
 20
11.653567
 30
0.000000
 11
15.793355
 21
11.693131
 31
0.000000
  0
LINE
  8
1
 10
15.793355
 20
11.693131
 30
0.000000
 11
15.823398
 21
11.734106
 31
0.000000
  0
LINE
  8
1
 10
15.823398
 20
11.734106
 30
0.000000
 11
15.853918
 21
11.776504
 31
0.000000
  0
LINE
  8
1
 10
15.853918
 20
11.776504
 30
0.000000
 11
15.884893
 21
11.820334
 31
0.000000
  0
LINE
  8
1
 10
15.884893
 20
11.820334
 30
0.000000
 11
15.916301
 21
11.865610
 31
0.000000
  0
LINE
  8
1
 10
15.916301
 20
11.865610
 30
0.000000
 11
15.948117
 21
11.912340
 31
0.000000
  0
LINE
  8
1
 10
15.948117
 20
11.912340
 30
0.000000
 11
15.980320
 21
11.960537
 31
0.000000
  0
LINE
  8
1
 10
15.980320
 20
11.960537
 30
0.000000
 11
16.012884
 21
12.010209
 31
0.000000
  0
LINE
  8
1
 10
16.012884
 20
12.010209
 30
0.000000
 11
16.045792
 21
12.061369
 31
0.000000
  0
LINE
  8
1
 10
16.045792
 20
12.061369
 30
0.000000
 11
16.079012
 21
12.114022
 31
0.000000
  0
LINE
  8
1
 10
16.079012
 20
12.114022
 30
0.000000
 11
16.112524
 21
12.168181
 31
0.000000
  0
LINE
  8
1
 10
16.112524
 20
12.168181
 30
0.000000
 11
16.146307
 21
12.223855
 31
0.000000
  0
LINE
  8
1
 10
16.146307
 20
12.223855
 30
0.000000
 11
16.180334
 21
12.281052
 31
0.000000
  0
LINE
  8
1
 10
16.180334
 20
12.281052
 30
0.000000
 11
16.214582
 21
12.339778
 31
0.000000
  0
LINE
  8
1
 10
16.214582
 20
12.339778
 30
0.000000
 11
16.249025
 21
12.400044
 31
0.000000
  0
LINE
  8
1
 10
16.249025
 20
12.400044
 30
0.000000
 11
16.283642
 21
12.461857
 31
0.000000
  0
LINE
  8
1
 10
16.283642
 20
12.461857
 30
0.000000
 11
16.318405
 21
12.525225
 31
0.000000
  0
LINE
  8
1
 10
16.318405
 20
12.525225
 30
0.000000
 11
16.353291
 21
12.590155
 31
0.000000
  0
LINE
  8
1
 10
16.353291
 20
12.590155
 30
0.000000
 11
16.388277
 21
12.656652
 31
0.000000
  0
LINE
  8
1
 10
16.388277
 20
12.656652
 30
0.000000
 11
16.423334
 21
12.724726
 31
0.000000
  0
LINE
  8
1
 10
16.423334
 20
12.724726
 30
0.000000
 11
16.458443
 21
12.794380
 31
0.000000
  0
LINE
  8
1
 10
16.458443
 20
12.794380
 30
0.000000
 11
16.493574
 21
12.865623
 31
0.000000
  0
LINE
  8
1
 10
16.493574
 20
12.865623
 30
0.000000
 11
16.528706
 21
12.938457
 31
0.000000
  0
LINE
  8
1
 10
16.528706
 20
12.938457
 30
0.000000
 11
16.563808
 21
13.012890
 31
0.000000
  0
LINE
  8
1
 10
16.563808
 20
13.012890
 30
0.000000
 11
16.598860
 21
13.088926
 31
0.000000
  0
LINE
  8
1
 10
16.598860
 20
13.088926
 30
0.000000
 11
16.633837
 21
13.166572
 31
0.000000
  0
LINE
  8
1
 10
16.633837
 20
13.166572
 30
0.000000
 11
16.668709
 21
13.245829
 31
0.000000
  0
LINE
  8
1
 10
16.668709
 20
13.245829
 30
0.000000
 11
16.703453
 21
13.326700
 31
0.000000
  0
LINE
  8
1
 10
16.703453
 20
13.326700
 30
0.000000
 11
16.738045
 21
13.409194
 31
0.000000
  0
LINE
  8
1
 10
16.738045
 20
13.409194
 30
0.000000
 11
16.772455
 21
13.493310
 31
0.000000
  0
LINE
  8
1
 10
16.772455
 20
13.493310
 30
0.000000
 11
16.806662
 21
13.579052
 31
0.000000
  0
LINE
  8
1
 10
16.806662
 20
13.579052
 30
0.000000
 11
16.840639
 21
13.666425
 31
0.000000
  0
LINE
  8
1
 10
16.840639
 20
13.666425
 30
0.000000
 11
16.874357
 21
13.755428
 31
0.000000
  0
LINE
  8
1
 10
16.874357
 20
13.755428
 30
0.000000
 11
16.907795
 21
13.846065
 31
0.000000
  0
LINE
  8
1
 10
16.907795
 20
13.846065
 30
0.000000
 11
16.940922
 21
13.938337
 31
0.000000
  0
LINE
  8
1
 10
16.940922
 20
13.938337
 30
0.000000
 11
16.964867
 21
14.006904
 31
0.000000
  0
LINE
  8
1
 10
16.964867
 20
14.006904
 30
0.000000
 11
16.046837
 21
15.049885
 31
0.000000
  0
LINE
  8
1
 10
16.046837
 20
15.049885
 30
0.000000
 11
15.975787
 21
15.034837
 31
0.000000
  0
LINE
  8
1
 10
15.975787
 20
15.034837
 30
0.000000
 11
15.880056
 21
15.013688
 31
0.000000
  0
LINE
  8
1
 10
15.880056
 20
15.013688
 30
0.000000
 11
15.785909
 21
14.992025
 31
0.000000
  0
LINE
  8
1
 10
15.785909
 20
14.992025
 30
0.000000
 11
15.693345
 21
14.969876
 31
0.000000
  0
LINE
  8
1
 10
15.693345
 20
14.969876
 30
0.000000
 11
15.602367
 21
14.947264
 31
0.000000
  0
LINE
  8
1
 10
15.602367
 20
14.947264
 30
0.000000
 11
15.512977
 21
14.924216
 31
0.000000
  0
LINE
  8
1
 10
15.512977
 20
14.924216
 30
0.000000
 11
15.425173
 21
14.900759
 31
0.000000
  0
LINE
  8
1
 10
15.425173
 20
14.900759
 30
0.000000
 11
15.338957
 21
14.876918
 31
0.000000
  0
LINE
  8
1
 10
15.338957
 20
14.876918
 30
0.000000
 11
15.254329
 21
14.852719
 31
0.000000
  0
LINE
  8
1
 10
15.254329
 20
14.852719
 30
0.000000
 11
15.171287
 21
14.828188
 31
0.000000
  0
LINE
  8
1
 10
15.171287
 20
14.828188
 30
0.000000
 11
15.089830
 21
14.803350
 31
0.000000
  0
LINE
  8
1
 10
15.089830
 20
14.803350
 30
0.000000
 11
15.009960
 21
14.778232
 31
0.000000
  0
LINE
  8
1
 10
15.009960
 20
14.778232
 30
0.000000
 11
14.931674
 21
14.752860
 31
0.000000
  0
LINE
  8
1
 10
14.931674
 20
14.752860
 30
0.000000
 11
14.854970
 21
14.727259
 31
0.000000
  0
LINE
  8
1
 10
14.854970
 20
14.727259
 30
0.000000
 11
14.779844
 21
14.701453
 31
0.000000
  0
LINE
  8
1
 10
14.779844
 20
14.701453
 30
0.000000
 11
14.706297
 21
14.675469
 31
0.000000
  0
LINE
  8
1
 10
14.706297
 20
14.675469
 30
0.000000
 11
14.634325
 21
14.649335
 31
0.000000
  0
LINE
  8
1
 10
14.634325
 20
14.649335
 30
0.000000
 11
14.563925
 21
14.623073
 31
0.000000
  0
LINE
  8
1
 10
14.563925
 20
14.623073
 30
0.000000
 11
14.495091
 21
14.596708
 31
0.000000
  0
LINE
  8
1
 10
14.495091
 20
14.596708
 30
0.000000
 11
14.427824
 21
14.570269
 31
0.000000
  0
LINE
  8
1
 10
14.427824
 20
14.570269
 30
0.000000
 11
14.362119
 21
14.543779
 31
0.000000
  0
LINE
  8
1
 10
14.362119
 20
14.543779
 30
0.000000
 11
14.297968
 21
14.517262
 31
0.000000
  0
LINE
  8
1
 10
14.297968
 20
14.517262
 30
0.000000
 11
14.235369
 21
14.490746
 31
0.000000
  0
LINE
  8
1
 10
14.235369
 20
14.490746
 30
0.000000
 11
14.174316
 21
14.464253
 31
0.000000
  0
LINE
  8
1
 10
14.174316
 20
14.464253
 30
0.000000
 11
14.114805
 21
14.437810
 31
0.000000
  0
LINE
  8
1
 10
14.114805
 20
14.437810
 30
0.000000
 11
14.056830
 21
14.411442
 31
0.000000
  0
LINE
  8
1
 10
14.056830
 20
14.411442
 30
0.000000
 11
14.000386
 21
14.385173
 31
0.000000
  0
LINE
  8
1
 10
14.000386
 20
14.385173
 30
0.000000
 11
13.945464
 21
14.359027
 31
0.000000
  0
LINE
  8
1
 10
13.945464
 20
14.359027
 30
0.000000
 11
13.892061
 21
14.333030
 31
0.000000
  0
LINE
  8
1
 10
13.892061
 20
14.333030
 30
0.000000
 11
13.840166
 21
14.307204
 31
0.000000
  0
LINE
  8
1
 10
13.840166
 20
14.307204
 30
0.000000
 11
13.789776
 21
14.281576
 31
0.000000
  0
LINE
  8
1
 10
13.789776
 20
14.281576
 30
0.000000
 11
13.740880
 21
14.256169
 31
0.000000
  0
LINE
  8
1
 10
13.740880
 20
14.256169
 30
0.000000
 11
13.693472
 21
14.231008
 31
0.000000
  0
LINE
  8
1
 10
13.693472
 20
14.231008
 30
0.000000
 11
13.647544
 21
14.206115
 31
0.000000
  0
LINE
  8
1
 10
13.647544
 20
14.206115
 30
0.000000
 11
13.603087
 21
14.181516
 31
0.000000
  0
LINE
  8
1
 10
13.603087
 20
14.181516
 30
0.000000
 11
13.560094
 21
14.157234
 31
0.000000
  0
LINE
  8
1
 10
13.560094
 20
14.157234
 30
0.000000
 11
13.518554
 21
14.133292
 31
0.000000
  0
LINE
  8
1
 10
13.518554
 20
14.133292
 30
0.000000
 11
13.478456
 21
14.109714
 31
0.000000
  0
LINE
  8
1
 10
13.478456
 20
14.109714
 30
0.000000
 11
13.439795
 21
14.086523
 31
0.000000
  0
LINE
  8
1
 10
13.439795
 20
14.086523
 30
0.000000
 11
13.402557
 21
14.063742
 31
0.000000
  0
LINE
  8
1
 10
13.402557
 20
14.063742
 30
0.000000
 11
13.366735
 21
14.041396
 31
0.000000
  0
LINE
  8
1
 10
13.366735
 20
14.041396
 30
0.000000
 11
13.332316
 21
14.019505
 31
0.000000
  0
LINE
  8
1
 10
13.332316
 20
14.019505
 30
0.000000
 11
13.299293
 21
13.998095
 31
0.000000
  0
LINE
  8
1
 10
13.299293
 20
13.998095
 30
0.000000
 11
13.267649
 21
13.977184
 31
0.000000
  0
LINE
  8
1
 10
13.267649
 20
13.977184
 30
0.000000
 11
13.237376
 21
13.956799
 31
0.000000
  0
LINE
  8
1
 10
13.237376
 20
13.956799
 30
0.000000
 11
13.208464
 21
13.936959
 31
0.000000
  0
LINE
  8
1
 10
13.208464
 20
13.936959
 30
0.000000
 11
13.180898
 21
13.917689
 31
0.000000
  0
LINE
  8
1
 10
13.180898
 20
13.917689
 30
0.000000
 11
13.154667
 21
13.899009
 31
0.000000
  0
LINE
  8
1
 10
13.154667
 20
13.899009
 30
0.000000
 11
13.129759
 21
13.880940
 31
0.000000
  0
LINE
  8
1
 10
13.129759
 20
13.880940
 30
0.000000
 11
13.106160
 21
13.863506
 31
0.000000
  0
LINE
  8
1
 10
13.106160
 20
13.863506
 30
0.000000
 11
13.083858
 21
13.846727
 31
0.000000
  0
LINE
  8
1
 10
13.083858
 20
13.846727
 30
0.000000
 11
13.062840
 21
13.830626
 31
0.000000
  0
LINE
  8
1
 10
13.062840
 20
13.830626
 30
0.000000
 11
13.043091
 21
13.815220
 31
0.000000
  0
LINE
  8
1
 10
13.043091
 20
13.815220
 30
0.000000
 11
13.024597
 21
13.800533
 31
0.000000
  0
LINE
  8
1
 10
13.024597
 20
13.800533
 30
0.000000
 11
13.007346
 21
13.786586
 31
0.000000
  0
LINE
  8
1
 10
13.007346
 20
13.786586
 30
0.000000
 11
12.991323
 21
13.773398
 31
0.000000
  0
LINE
  8
1
 10
12.991323
 20
13.773398
 30
0.000000
 11
12.976512
 21
13.760990
 31
0.000000
  0
LINE
  8
1
 10
12.976512
 20
13.760990
 30
0.000000
 11
12.962898
 21
13.749381
 31
0.000000
  0
LINE
  8
1
 10
12.962898
 20
13.749381
 30
0.000000
 11
12.950468
 21
13.738593
 31
0.000000
  0
LINE
  8
1
 10
12.950468
 20
13.738593
 30
0.000000
 11
12.939206
 21
13.728645
 31
0.000000
  0
LINE
  8
1
 10
12.939206
 20
13.728645
 30
0.000000
 11
12.929092
 21
13.719554
 31
0.000000
  0
LINE
  8
1
 10
12.929092
 20
13.719554
 30
0.000000
 11
12.920117
 21
13.711344
 31
0.000000
  0
LINE
  8
1
 10
12.920117
 20
13.711344
 30
0.000000
 11
12.912261
 21
13.704029
 31
0.000000
  0
LINE
  8
1
 10
12.912261
 20
13.704029
 30
0.000000
 11
12.905508
 21
13.697632
 31
0.000000
  0
LINE
  8
1
 10
12.905508
 20
13.697632
 30
0.000000
 11
12.899839
 21
13.692167
 31
0.000000
  0
LINE
  8
1
 10
12.899839
 20
13.692167
 30
0.000000
 11
12.895242
 21
13.687657
 31
0.000000
  0
LINE
  8
1
 10
12.895242
 20
13.687657
 30
0.000000
 11
12.891697
 21
13.684118
 31
0.000000
  0
LINE
  8
1
 10
12.891697
 20
13.684118
 30
0.000000
 11
12.889187
 21
13.681570
 31
0.000000
  0
LINE
  8
1
 10
12.889187
 20
13.681570
 30
0.000000
 11
12.887199
 21
13.679509
 31
0.000000
  0
LINE
  8
1
 10
12.887199
 20
13.679509
 30
0.000000
 11
11.999988
 21
12.737751
 31
0.000000
  0
LINE
  8
1
 10
11.999988
 20
12.737751
 30
0.000000
 11
10.286242
 21
14.157798
 31
0.000000
  0
LINE
  8
1
 10
10.286242
 20
14.157798
 30
0.000000
 11
11.046749
 21
15.204546
 31
0.000000
  0
LINE
  8
1
 10
11.046749
 20
15.204546
 30
0.000000
 11
11.048405
 21
15.206882
 31
0.000000
  0
LINE
  8
1
 10
11.048405
 20
15.206882
 30
0.000000
 11
11.050443
 21
15.209821
 31
0.000000
  0
LINE
  8
1
 10
11.050443
 20
15.209821
 30
0.000000
 11
11.053261
 21
15.213963
 31
0.000000
  0
LINE
  8
1
 10
11.053261
 20
15.213963
 30
0.000000
 11
11.056838
 21
15.219317
 31
0.000000
  0
LINE
  8
1
 10
11.056838
 20
15.219317
 30
0.000000
 11
11.061154
 21
15.225903
 31
0.000000
  0
LINE
  8
1
 10
11.061154
 20
15.225903
 30
0.000000
 11
11.066185
 21
15.233727
 31
0.000000
  0
LINE
  8
1
 10
11.066185
 20
15.233727
 30
0.000000
 11
11.071913
 21
15.242805
 31
0.000000
  0
LINE
  8
1
 10
11.071913
 20
15.242805
 30
0.000000
 11
11.078313
 21
15.253150
 31
0.000000
  0
LINE
  8
1
 10
11.078313
 20
15.253150
 30
0.000000
 11
11.085366
 21
15.264776
 31
0.000000
  0
LINE
  8
1
 10
11.085366
 20
15.264776
 30
0.000000
 11
11.093048
 21
15.277691
 31
0.000000
  0
LINE
  8
1
 10
11.093048
 20
15.277691
 30
0.000000
 11
11.101339
 21
15.291909
 31
0.000000
  0
LINE
  8
1
 10
11.101339
 20
15.291909
 30
0.000000
 11
11.110216
 21
15.307443
 31
0.000000
  0
LINE
  8
1
 10
11.110216
 20
15.307443
 30
0.000000
 11
11.119657
 21
15.324301
 31
0.000000
  0
LINE
  8
1
 10
11.119657
 20
15.324301
 30
0.000000
 11
11.129637
 21
15.342496
 31
0.000000
  0
LINE
  8
1
 10
11.129637
 20
15.342496
 30
0.000000
 11
11.140137
 21
15.362039
 31
0.000000
  0
LINE
  8
1
 10
11.140137
 20
15.362039
 30
0.000000
 11
11.151132
 21
15.382938
 31
0.000000
  0
LINE
  8
1
 10
11.151132
 20
15.382938
 30
0.000000
 11
11.162599
 21
15.405206
 31
0.000000
  0
LINE
  8
1
 10
11.162599
 20
15.405206
 30
0.000000
 11
11.174515
 21
15.428850
 31
0.000000
  0
LINE
  8
1
 10
11.174515
 20
15.428850
 30
0.000000
 11
11.186858
 21
15.453881
 31
0.000000
  0
LINE
  8
1
 10
11.186858
 20
15.453881
 30
0.000000
 11
11.199604
 21
15.480309
 31
0.000000
  0
LINE
  8
1
 10
11.199604
 20
15.480309
 30
0.000000
 11
11.212729
 21
15.508141
 31
0.000000
  0
LINE
  8
1
 10
11.212729
 20
15.508141
 30
0.000000
 11
11.226211
 21
15.537385
 31
0.000000
  0
LINE
  8
1
 10
11.226211
 20
15.537385
 30
0.000000
 11
11.240023
 21
15.568051
 31
0.000000
  0
LINE
  8
1
 10
11.240023
 20
15.568051
 30
0.000000
 11
11.254144
 21
15.600146
 31
0.000000
  0
LINE
  8
1
 10
11.254144
 20
15.600146
 30
0.000000
 11
11.268550
 21
15.633680
 31
0.000000
  0
LINE
  8
1
 10
11.268550
 20
15.633680
 30
0.000000
 11
11.283216
 21
15.668658
 31
0.000000
  0
LINE
  8
1
 10
11.283216
 20
15.668658
 30
0.000000
 11
11.298118
 21
15.705086
 31
0.000000
  0
LINE
  8
1
 10
11.298118
 20
15.705086
 30
0.000000
 11
11.313232
 21
15.742972
 31
0.000000
  0
LINE
  8
1
 10
11.313232
 20
15.742972
 30
0.000000
 11
11.328533
 21
15.782323
 31
0.000000
  0
LINE
  8
1
 10
11.328533
 20
15.782323
 30
0.000000
 11
11.343999
 21
15.823145
 31
0.000000
  0
LINE
  8
1
 10
11.343999
 20
15.823145
 30
0.000000
 11
11.359602
 21
15.865442
 31
0.000000
  0
LINE
  8
1
 10
11.359602
 20
15.865442
 30
0.000000
 11
11.375319
 21
15.909222
 31
0.000000
  0
LINE
  8
1
 10
11.375319
 20
15.909222
 30
0.000000
 11
11.391126
 21
15.954488
 31
0.000000
  0
LINE
  8
1
 10
11.391126
 20
15.954488
 30
0.000000
 11
11.406996
 21
16.001244
 31
0.000000
  0
LINE
  8
1
 10
11.406996
 20
16.001244
 30
0.000000
 11
11.422907
 21
16.049498
 31
0.000000
  0
LINE
  8
1
 10
11.422907
 20
16.049498
 30
0.000000
 11
11.438831
 21
16.099251
 31
0.000000
  0
LINE
  8
1
 10
11.438831
 20
16.099251
 30
0.000000
 11
11.454747
 21
16.150509
 31
0.000000
  0
LINE
  8
1
 10
11.454747
 20
16.150509
 30
0.000000
 11
11.470626
 21
16.203274
 31
0.000000
  0
LINE
  8
1
 10
11.470626
 20
16.203274
 30
0.000000
 11
11.486444
 21
16.257549
 31
0.000000
  0
LINE
  8
1
 10
11.486444
 20
16.257549
 30
0.000000
 11
11.502178
 21
16.313337
 31
0.000000
  0
LINE
  8
1
 10
11.502178
 20
16.313337
 30
0.000000
 11
11.517799
 21
16.370642
 31
0.000000
  0
LINE
  8
1
 10
11.517799
 20
16.370642
 30
0.000000
 11
11.533286
 21
16.429466
 31
0.000000
  0
LINE
  8
1
 10
11.533286
 20
16.429466
 30
0.000000
 11
11.548610
 21
16.489809
 31
0.000000
  0
LINE
  8
1
 10
11.548610
 20
16.489809
 30
0.000000
 11
11.563746
 21
16.551672
 31
0.000000
  0
LINE
  8
1
 10
11.563746
 20
16.551672
 30
0.000000
 11
11.578671
 21
16.615061
 31
0.000000
  0
LINE
  8
1
 10
11.578671
 20
16.615061
 30
0.000000
 11
11.593359
 21
16.679972
 31
0.000000
  0
LINE
  8
1
 10
11.593359
 20
16.679972
 30
0.000000
 11
11.607782
 21
16.746408
 31
0.000000
  0
LINE
  8
1
 10
11.607782
 20
16.746408
 30
0.000000
 11
11.621917
 21
16.814369
 31
0.000000
  0
LINE
  8
1
 10
11.621917
 20
16.814369
 30
0.000000
 11
11.635736
 21
16.883852
 31
0.000000
  0
LINE
  8
1
 10
11.635736
 20
16.883852
 30
0.000000
 11
11.649217
 21
16.954861
 31
0.000000
  0
LINE
  8
1
 10
11.649217
 20
16.954861
 30
0.000000
 11
11.662333
 21
17.027393
 31
0.000000
  0
LINE
  8
1
 10
11.662333
 20
17.027393
 30
0.000000
 11
11.675056
 21
17.101448
 31
0.000000
  0
LINE
  8
1
 10
11.675056
 20
17.101448
 30
0.000000
 11
11.687363
 21
17.177023
 31
0.000000
  0
LINE
  8
1
 10
11.687363
 20
17.177023
 30
0.000000
 11
11.699228
 21
17.254118
 31
0.000000
  0
LINE
  8
1
 10
11.699228
 20
17.254118
 30
0.000000
 11
11.710626
 21
17.332729
 31
0.000000
  0
LINE
  8
1
 10
11.710626
 20
17.332729
 30
0.000000
 11
11.721529
 21
17.412855
 31
0.000000
  0
LINE
  8
1
 10
11.721529
 20
17.412855
 30
0.000000
 11
11.731913
 21
17.494492
 31
0.000000
  0
LINE
  8
1
 10
11.731913
 20
17.494492
 30
0.000000
 11
11.741754
 21
17.577639
 31
0.000000
  0
LINE
  8
1
 10
11.741754
 20
17.577639
 30
0.000000
 11
11.751023
 21
17.662292
 31
0.000000
  0
LINE
  8
1
 10
11.751023
 20
17.662292
 30
0.000000
 11
11.759698
 21
17.748446
 31
0.000000
  0
LINE
  8
1
 10
11.759698
 20
17.748446
 30
0.000000
 11
11.767750
 21
17.836096
 31
0.000000
  0
LINE
  8
1
 10
11.767750
 20
17.836096
 30
0.000000
 11
11.775157
 21
17.925241
 31
0.000000
  0
LINE
  8
1
 10
11.775157
 20
17.925241
 30
0.000000
 11
11.781891
 21
18.015875
 31
0.000000
  0
LINE
  8
1
 10
11.781891
 20
18.015875
 30
0.000000
 11
11.787927
 21
18.107990
 31
0.000000
  0
LINE
  8
1
 10
11.787927
 20
18.107990
 30
0.000000
 11
11.793242
 21
18.201586
 31
0.000000
  0
LINE
  8
1
 10
11.793242
 20
18.201586
 30
0.000000
 11
11.797806
 21
18.296652
 31
0.000000
  0
LINE
  8
1
 10
11.797806
 20
18.296652
 30
0.000000
 11
11.801598
 21
18.393187
 31
0.000000
  0
LINE
  8
1
 10
11.801598
 20
18.393187
 30
0.000000
 11
11.804591
 21
18.491180
 31
0.000000
  0
LINE
  8
1
 10
11.804591
 20
18.491180
 30
0.000000
 11
11.806175
 21
18.563789
 31
0.000000
  0
LINE
  8
1
 10
11.806175
 20
18.563789
 30
0.000000
 11
10.610780
 21
19.272036
 31
0.000000
  0
LINE
  8
1
 10
10.610780
 20
19.272036
 30
0.000000
 11
10.547856
 21
19.235769
 31
0.000000
  0
LINE
  8
1
 10
10.547856
 20
19.235769
 30
0.000000
 11
10.463346
 21
19.186073
 31
0.000000
  0
LINE
  8
1
 10
10.463346
 20
19.186073
 30
0.000000
 11
10.380501
 21
19.136377
 31
0.000000
  0
LINE
  8
1
 10
10.380501
 20
19.136377
 30
0.000000
 11
10.299313
 21
19.086708
 31
0.000000
  0
LINE
  8
1
 10
10.299313
 20
19.086708
 30
0.000000
 11
10.219775
 21
19.037088
 31
0.000000
  0
LINE
  8
1
 10
10.219775
 20
19.037088
 30
0.000000
 11
10.141881
 21
18.987547
 31
0.000000
  0
LINE
  8
1
 10
10.141881
 20
18.987547
 30
0.000000
 11
10.065624
 21
18.938105
 31
0.000000
  0
LINE
  8
1
 10
10.065624
 20
18.938105
 30
0.000000
 11
9.990994
 21
18.888788
 31
0.000000
  0
LINE
  8
1
 10
9.990994
 20
18.888788
 30
0.000000
 11
9.917986
 21
18.839622
 31
0.000000
  0
LINE
  8
1
 10
9.917986
 20
18.839622
 30
0.000000
 11
9.846589
 21
18.790630
 31
0.000000
  0
LINE
  8
1
 10
9.846589
 20
18.790630
 30
0.000000
 11
9.776795
 21
18.741837
 31
0.000000
  0
LINE
  8
1
 10
9.776795
 20
18.741837
 30
0.000000
 11
9.708596
 21
18.693266
 31
0.000000
  0
LINE
  8
1
 10
9.708596
 20
18.693266
 30
0.000000
 11
9.641982
 21
18.644945
 31
0.000000
  0
LINE
  8
1
 10
9.641982
 20
18.644945
 30
0.000000
 11
9.576942
 21
18.596893
 31
0.000000
  0
LINE
  8
1
 10
9.576942
 20
18.596893
 30
0.000000
 11
9.513469
 21
18.549135
 31
0.000000
  0
LINE
  8
1
 10
9.513469
 20
18.549135
 30
0.000000
 11
9.451550
 21
18.501696
 31
0.000000
  0
LINE
  8
1
 10
9.451550
 20
18.501696
 30
0.000000
 11
9.391177
 21
18.454599
 31
0.000000
  0
LINE
  8
1
 10
9.391177
 20
18.454599
 30
0.000000
 11
9.332337
 21
18.407867
 31
0.000000
  0
LINE
  8
1
 10
9.332337
 20
18.407867
 30
0.000000
 11
9.275021
 21
18.361525
 31
0.000000
  0
LINE
  8
1
 10
9.275021
 20
18.361525
 30
0.000000
 11
9.219216
 21
18.315592
 31
0.000000
  0
LINE
  8
1
 10
9.219216
 20
18.315592
 30
0.000000
 11
9.164911
 21
18.270094
 31
0.000000
  0
LINE
  8
1
 10
9.164911
 20
18.270094
 30
0.000000
 11
9.112095
 21
18.225052
 31
0.000000
  0
LINE
  8
1
 10
9.112095
 20
18.225052
 30
0.000000
 11
9.060754
 21
18.180489
 31
0.000000
  0
LINE
  8
1
 10
9.060754
 20
18.180489
 30
0.000000
 11
9.010876
 21
18.136427
 31
0.000000
  0
LINE
  8
1
 10
9.010876
 20
18.136427
 30
0.000000
 11
8.962449
 21
18.092888
 31
0.000000
  0
LINE
  8
1
 10
8.962449
 20
18.092888
 30
0.000000
 11
8.915461
 21
18.049894
 31
0.000000
  0
LINE
  8
1
 10
8.915461
 20
18.049894
 30
0.000000
 11
8.869896
 21
18.007469
 31
0.000000
  0
LINE
  8
1
 10
8.869896
 20
18.007469
 30
0.000000
 11
8.825742
 21
17.965631
 31
0.000000
  0
LINE
  8
1
 10
8.825742
 20
17.965631
 30
0.000000
 11
8.782986
 21
17.924404
 31
0.000000
  0
LINE
  8
1
 10
8.782986
 20
17.924404
 30
0.000000
 11
8.741611
 21
17.883806
 31
0.000000
  0
LINE
  8
1
 10
8.741611
 20
17.883806
 30
0.000000
 11
8.701607
 21
17.843861
 31
0.000000
  0
LINE
  8
1
 10
8.701607
 20
17.843861
 30
0.000000
 11
8.662955
 21
17.804588
 31
0.000000
  0
LINE
  8
1
 10
8.662955
 20
17.804588
 30
0.000000
 11
8.625643
 21
17.766008
 31
0.000000
  0
LINE
  8
1
 10
8.625643
 20
17.766008
 30
0.000000
 11
8.589655
 21
17.728142
 31
0.000000
  0
LINE
  8
1
 10
8.589655
 20
17.728142
 30
0.000000
 11
8.554976
 21
17.691008
 31
0.000000
  0
LINE
  8
1
 10
8.554976
 20
17.691008
 30
0.000000
 11
8.521590
 21
17.654629
 31
0.000000
  0
LINE
  8
1
 10
8.521590
 20
17.654629
 30
0.000000
 11
8.489481
 21
17.619022
 31
0.000000
  0
LINE
  8
1
 10
8.489481
 20
17.619022
 30
0.000000
 11
8.458633
 21
17.584208
 31
0.000000
  0
LINE
  8
1
 10
8.458633
 20
17.584208
 30
0.000000
 11
8.429030
 21
17.550205
 31
0.000000
  0
LINE
  8
1
 10
8.429030
 20
17.550205
 30
0.000000
 11
8.400655
 21
17.517031
 31
0.000000
  0
LINE
  8
1
 10
8.400655
 20
17.517031
 30
0.000000
 11
8.373491
 21
17.484709
 31
0.000000
  0
LINE
  8
1
 10
8.373491
 20
17.484709
 30
0.000000
 11
8.347522
 21
17.453253
 31
0.000000
  0
LINE
  8
1
 10
8.347522
 20
17.453253
 30
0.000000
 11
8.322730
 21
17.422686
 31
0.000000
  0
LINE
  8
1
 10
8.322730
 20
17.422686
 30
0.000000
 11
8.299097
 21
17.393021
 31
0.000000
  0
LINE
  8
1
 10
8.299097
 20
17.393021
 30
0.000000
 11
8.276606
 21
17.364277
 31
0.000000
  0
LINE
  8
1
 10
8.276606
 20
17.364277
 30
0.000000
 11
8.255239
 21
17.336475
 31
0.000000
  0
LINE
  8
1
 10
8.255239
 20
17.336475
 30
0.000000
 11
8.234977
 21
17.309629
 31
0.000000
  0
LINE
  8
1
 10
8.234977
 20
17.309629
 30
0.000000
 11
8.215802
 21
17.283758
 31
0.000000
  0
LINE
  8
1
 10
8.215802
 20
17.283758
 30
0.000000
 11
8.197696
 21
17.258877
 31
0.000000
  0
LINE
  8
1
 10
8.197696
 20
17.258877
 30
0.000000
 11
8.180640
 21
17.235004
 31
0.000000
  0
LINE
  8
1
 10
8.180640
 20
17.235004
 30
0.000000
 11
8.164615
 21
17.212154
 31
0.000000
  0
LINE
  8
1
 10
8.164615
 20
17.212154
 30
0.000000
 11
8.149601
 21
17.190346
 31
0.000000
  0
LINE
  8
1
 10
8.149601
 20
17.190346
 30
0.000000
 11
8.135578
 21
17.169592
 31
0.000000
  0
LINE
  8
1
 10
8.135578
 20
17.169592
 30
0.000000
 11
8.122529
 21
17.149910
 31
0.000000
  0
LINE
  8
1
 10
8.122529
 20
17.149910
 30
0.000000
 11
8.110432
 21
17.131313
 31
0.000000
  0
LINE
  8
1
 10
8.110432
 20
17.131313
 30
0.000000
 11
8.099268
 21
17.113819
 31
0.000000
  0
LINE
  8
1
 10
8.099268
 20
17.113819
 30
0.000000
 11
8.089017
 21
17.097441
 31
0.000000
  0
LINE
  8
1
 10
8.089017
 20
17.097441
 30
0.000000
 11
8.079657
 21
17.082195
 31
0.000000
  0
LINE
  8
1
 10
8.079657
 20
17.082195
 30
0.000000
 11
8.071168
 21
17.068092
 31
0.000000
  0
LINE
  8
1
 10
8.071168
 20
17.068092
 30
0.000000
 11
8.063532
 21
17.055151
 31
0.000000
  0
LINE
  8
1
 10
8.063532
 20
17.055151
 30
0.000000
 11
8.056723
 21
17.043381
 31
0.000000
  0
LINE
  8
1
 10
8.056723
 20
17.043381
 30
0.000000
 11
8.050724
 21
17.032799
 31
0.000000
  0
LINE
  8
1
 10
8.050724
 20
17.032799
 30
0.000000
 11
8.045512
 21
17.023415
 31
0.000000
  0
LINE
  8
1
 10
8.045512
 20
17.023415
 30
0.000000
 11
8.041067
 21
17.015244
 31
0.000000
  0
LINE
  8
1
 10
8.041067
 20
17.015244
 30
0.000000
 11
8.037365
 21
17.008295
 31
0.000000
  0
LINE
  8
1
 10
8.037365
 20
17.008295
 30
0.000000
 11
8.034386
 21
17.002584
 31
0.000000
  0
LINE
  8
1
 10
8.034386
 20
17.002584
 30
0.000000
 11
8.032107
 21
16.998123
 31
0.000000
  0
LINE
  8
1
 10
8.032107
 20
16.998123
 30
0.000000
 11
8.030508
 21
16.994923
 31
0.000000
  0
LINE
  8
1
 10
8.030508
 20
16.994923
 30
0.000000
 11
8.029255
 21
16.992350
 31
0.000000
  0
LINE
  8
1
 10
8.029255
 20
16.992350
 30
0.000000
 11
7.476485
 21
15.822521
 31
0.000000
  0
LINE
  8
1
 10
7.476485
 20
15.822521
 30
0.000000
 11
5.407797
 21
16.643490
 31
0.000000
  0
LINE
  8
1
 10
5.407797
 20
16.643490
 30
0.000000
 11
5.807620
 21
17.874016
 31
0.000000
  0
LINE
  8
1
 10
5.807620
 20
17.874016
 30
0.000000
 11
5.808473
 21
17.876749
 31
0.000000
  0
LINE
  8
1
 10
5.808473
 20
17.876749
 30
0.000000
 11
5.809503
 21
17.880175
 31
0.000000
  0
LINE
  8
1
 10
5.809503
 20
17.880175
 30
0.000000
 11
5.810904
 21
17.884983
 31
0.000000
  0
LINE
  8
1
 10
5.810904
 20
17.884983
 30
0.000000
 11
5.812651
 21
17.891182
 31
0.000000
  0
LINE
  8
1
 10
5.812651
 20
17.891182
 30
0.000000
 11
5.814721
 21
17.898779
 31
0.000000
  0
LINE
  8
1
 10
5.814721
 20
17.898779
 30
0.000000
 11
5.817088
 21
17.907774
 31
0.000000
  0
LINE
  8
1
 10
5.817088
 20
17.907774
 30
0.000000
 11
5.819729
 21
17.918179
 31
0.000000
  0
LINE
  8
1
 10
5.819729
 20
17.918179
 30
0.000000
 11
5.822619
 21
17.929995
 31
0.000000
  0
LINE
  8
1
 10
5.822619
 20
17.929995
 30
0.000000
 11
5.825735
 21
17.943232
 31
0.000000
  0
LINE
  8
1
 10
5.825735
 20
17.943232
 30
0.000000
 11
5.829051
 21
17.957888
 31
0.000000
  0
LINE
  8
1
 10
5.829051
 20
17.957888
 30
0.000000
 11
5.832541
 21
17.973972
 31
0.000000
  0
LINE
  8
1
 10
5.832541
 20
17.973972
 30
0.000000
 11
5.836184
 21
17.991489
 31
0.000000
  0
LINE
  8
1
 10
5.836184
 20
17.991489
 30
0.000000
 11
5.839952
 21
18.010439
 31
0.000000
  0
LINE
  8
1
 10
5.839952
 20
18.010439
 30
0.000000
 11
5.843822
 21
18.030828
 31
0.000000
  0
LINE
  8
1
 10
5.843822
 20
18.030828
 30
0.000000
 11
5.847769
 21
18.052658
 31
0.000000
  0
LINE
  8
1
 10
5.847769
 20
18.052658
 30
0.000000
 11
5.851767
 21
18.075933
 31
0.000000
  0
LINE
  8
1
 10
5.851767
 20
18.075933
 30
0.000000
 11
5.855793
 21
18.100655
 31
0.000000
  0
LINE
  8
1
 10
5.855793
 20
18.100655
 30
0.000000
 11
5.859819
 21
18.126823
 31
0.000000
  0
LINE
  8
1
 10
5.859819
 20
18.126823
 30
0.000000
 11
5.863823
 21
18.154444
 31
0.000000
  0
LINE
  8
1
 10
5.863823
 20
18.154444
 30
0.000000
 11
5.867778
 21
18.183516
 31
0.000000
  0
LINE
  8
1
 10
5.867778
 20
18.183516
 30
0.000000
 11
5.871661
 21
18.214043
 31
0.000000
  0
LINE
  8
1
 10
5.871661
 20
18.214043
 30
0.000000
 11
5.875444
 21
18.246021
 31
0.000000
  0
LINE
  8
1
 10
5.875444
 20
18.246021
 30
0.000000
 11
5.879105
 21
18.279455
 31
0.000000
  0
LINE
  8
1
 10
5.879105
 20
18.279455
 30
0.000000
 11
5.882617
 21
18.314342
 31
0.000000
  0
LINE
  8
1
 10
5.882617
 20
18.314342
 30
0.000000
 11
5.885955
 21
18.350687
 31
0.000000
  0
LINE
  8
1
 10
5.885955
 20
18.350687
 30
0.000000
 11
5.889095
 21
18.388485
 31
0.000000
  0
LINE
  8
1
 10
5.889095
 20
18.388485
 30
0.000000
 11
5.892011
 21
18.427734
 31
0.000000
  0
LINE
  8
1
 10
5.892011
 20
18.427734
 30
0.000000
 11
5.894678
 21
18.468439
 31
0.000000
  0
LINE
  8
1
 10
5.894678
 20
18.468439
 30
0.000000
 11
5.897070
 21
18.510592
 31
0.000000
  0
LINE
  8
1
 10
5.897070
 20
18.510592
 30
0.000000
 11
5.899164
 21
18.554193
 31
0.000000
  0
LINE
  8
1
 10
5.899164
 20
18.554193
 30
0.000000
 11
5.900932
 21
18.599243
 31
0.000000
  0
LINE
  8
1
 10
5.900932
 20
18.599243
 30
0.000000
 11
5.902352
 21
18.645737
 31
0.000000
  0
LINE
  8
1
 10
5.902352
 20
18.645737
 30
0.000000
 11
5.903397
 21
18.693670
 31
0.000000
  0
LINE
  8
1
 10
5.903397
 20
18.693670
 30
0.000000
 11
5.904042
 21
18.743044
 31
0.000000
  0
LINE
  8
1
 10
5.904042
 20
18.743044
 30
0.000000
 11
5.904263
 21
18.793852
 31
0.000000
  0
LINE
  8
1
 10
5.904263
 20
18.793852
 30
0.000000
 11
5.904034
 21
18.846090
 31
0.000000
  0
LINE
  8
1
 10
5.904034
 20
18.846090
 30
0.000000
 11
5.903330
 21
18.899759
 31
0.000000
  0
LINE
  8
1
 10
5.903330
 20
18.899759
 30
0.000000
 11
5.902127
 21
18.954847
 31
0.000000
  0
LINE
  8
1
 10
5.902127
 20
18.954847
 30
0.000000
 11
5.900400
 21
19.011354
 31
0.000000
  0
LINE
  8
1
 10
5.900400
 20
19.011354
 30
0.000000
 11
5.898123
 21
19.069275
 31
0.000000
  0
LINE
  8
1
 10
5.898123
 20
19.069275
 30
0.000000
 11
5.895272
 21
19.128601
 31
0.000000
  0
LINE
  8
1
 10
5.895272
 20
19.128601
 30
0.000000
 11
5.891823
 21
19.189333
 31
0.000000
  0
LINE
  8
1
 10
5.891823
 20
19.189333
 30
0.000000
 11
5.887750
 21
19.251457
 31
0.000000
  0
LINE
  8
1
 10
5.887750
 20
19.251457
 30
0.000000
 11
5.883029
 21
19.314970
 31
0.000000
  0
LINE
  8
1
 10
5.883029
 20
19.314970
 30
0.000000
 11
5.877635
 21
19.379868
 31
0.000000
  0
LINE
  8
1
 10
5.877635
 20
19.379868
 30
0.000000
 11
5.871545
 21
19.446142
 31
0.000000
  0
LINE
  8
1
 10
5.871545
 20
19.446142
 30
0.000000
 11
5.864733
 21
19.513783
 31
0.000000
  0
LINE
  8
1
 10
5.864733
 20
19.513783
 30
0.000000
 11
5.857175
 21
19.582785
 31
0.000000
  0
LINE
  8
1
 10
5.857175
 20
19.582785
 30
0.000000
 11
5.848846
 21
19.653139
 31
0.000000
  0
LINE
  8
1
 10
5.848846
 20
19.653139
 30
0.000000
 11
5.839724
 21
19.724838
 31
0.000000
  0
LINE
  8
1
 10
5.839724
 20
19.724838
 30
0.000000
 11
5.829783
 21
19.797873
 31
0.000000
  0
LINE
  8
1
 10
5.829783
 20
19.797873
 30
0.000000
 11
5.819001
 21
19.872234
 31
0.000000
  0
LINE
  8
1
 10
5.819001
 20
19.872234
 30
0.000000
 11
5.807351
 21
19.947914
 31
0.000000
  0
LINE
  8
1
 10
5.807351
 20
19.947914
 30
0.000000
 11
5.794812
 21
20.024902
 31
0.000000
  0
LINE
  8
1
 10
5.794812
 20
20.024902
 30
0.000000
 11
5.781359
 21
20.103188
 31
0.000000
  0
LINE
  8
1
 10
5.781359
 20
20.103188
 30
0.000000
 11
5.766969
 21
20.182762
 31
0.000000
  0
LINE
  8
1
 10
5.766969
 20
20.182762
 30
0.000000
 11
5.751617
 21
20.263611
 31
0.000000
  0
LINE
  8
1
 10
5.751617
 20
20.263611
 30
0.000000
 11
5.735282
 21
20.345730
 31
0.000000
  0
LINE
  8
1
 10
5.735282
 20
20.345730
 30
0.000000
 11
5.717939
 21
20.429104
 31
0.000000
  0
LINE
  8
1
 10
5.717939
 20
20.429104
 30
0.000000
 11
5.699566
 21
20.513721
 31
0.000000
  0
LINE
  8
1
 10
5.699566
 20
20.513721
 30
0.000000
 11
5.680139
 21
20.599571
 31
0.000000
  0
LINE
  8
1
 10
5.680139
 20
20.599571
 30
0.000000
 11
5.659636
 21
20.686642
 31
0.000000
  0
LINE
  8
1
 10
5.659636
 20
20.686642
 30
0.000000
 11
5.638033
 21
20.774920
 31
0.000000
  0
LINE
  8
1
 10
5.638033
 20
20.774920
 30
0.000000
 11
5.615308
 21
20.864393
 31
0.000000
  0
LINE
  8
1
 10
5.615308
 20
20.864393
 30
0.000000
 11
5.591440
 21
20.955050
 31
0.000000
  0
LINE
  8
1
 10
5.591440
 20
20.955050
 30
0.000000
 11
5.566404
 21
21.046873
 31
0.000000
  0
LINE
  8
1
 10
5.566404
 20
21.046873
 30
0.000000
 11
5.540180
 21
21.139854
 31
0.000000
  0
LINE
  8
1
 10
5.540180
 20
21.139854
 30
0.000000
 11
5.512744
 21
21.233976
 31
0.000000
  0
LINE
  8
1
 10
5.512744
 20
21.233976
 30
0.000000
 11
5.491814
 21
21.303522
 31
0.000000
  0
LINE
  8
1
 10
5.491814
 20
21.303522
 30
0.000000
 11
4.136065
 21
21.607706
 31
0.000000
  0
LINE
  8
1
 10
4.136065
 20
21.607706
 30
0.000000
 11
4.087429
 21
21.553770
 31
0.000000
  0
LINE
  8
1
 10
4.087429
 20
21.553770
 30
0.000000
 11
4.022411
 21
21.480392
 31
0.000000
  0
LINE
  8
1
 10
4.022411
 20
21.480392
 30
0.000000
 11
3.958977
 21
21.407528
 31
0.000000
  0
LINE
  8
1
 10
3.958977
 20
21.407528
 30
0.000000
 11
3.897111
 21
21.335201
 31
0.000000
  0
LINE
  8
1
 10
3.897111
 20
21.335201
 30
0.000000
 11
3.836800
 21
21.263432
 31
0.000000
  0
LINE
  8
1
 10
3.836800
 20
21.263432
 30
0.000000
 11
3.778028
 21
21.192244
 31
0.000000
  0
LINE
  8
1
 10
3.778028
 20
21.192244
 30
0.000000
 11
3.720781
 21
21.121656
 31
0.000000
  0
LINE
  8
1
 10
3.720781
 20
21.121656
 30
0.000000
 11
3.665044
 21
21.051691
 31
0.000000
  0
LINE
  8
1
 10
3.665044
 20
21.051691
 30
0.000000
 11
3.610802
 21
20.982372
 31
0.000000
  0
LINE
  8
1
 10
3.610802
 20
20.982372
 30
0.000000
 11
3.558039
 21
20.913715
 31
0.000000
  0
LINE
  8
1
 10
3.558039
 20
20.913715
 30
0.000000
 11
3.506739
 21
20.845741
 31
0.000000
  0
LINE
  8
1
 10
3.506739
 20
20.845741
 30
0.000000
 11
3.456887
 21
20.778473
 31
0.000000
  0
LINE
  8
1
 10
3.456887
 20
20.778473
 30
0.000000
 11
3.408465
 21
20.711931
 31
0.000000
  0
LINE
  8
1
 10
3.408465
 20
20.711931
 30
0.000000
 11
3.361458
 21
20.646133
 31
0.000000
  0
LINE
  8
1
 10
3.361458
 20
20.646133
 30
0.000000
 11
3.315849
 21
20.581100
 31
0.000000
  0
LINE
  8
1
 10
3.315849
 20
20.581100
 30
0.000000
 11
3.271620
 21
20.516848
 31
0.000000
  0
LINE
  8
1
 10
3.271620
 20
20.516848
 30
0.000000
 11
3.228755
 21
20.453402
 31
0.000000
  0
LINE
  8
1
 10
3.228755
 20
20.453402
 30
0.000000
 11
3.187237
 21
20.390774
 31
0.000000
  0
LINE
  8
1
 10
3.187237
 20
20.390774
 30
0.000000
 11
3.147046
 21
20.328985
 31
0.000000
  0
LINE
  8
1
 10
3.147046
 20
20.328985
 30
0.000000
 11
3.108166
 21
20.268057
 31
0.000000
  0
LINE
  8
1
 10
3.108166
 20
20.268057
 30
0.000000
 11
3.070579
 21
20.208006
 31
0.000000
  0
LINE
  8
1
 10
3.070579
 20
20.208006
 30
0.000000
 11
3.034266
 21
20.148846
 31
0.000000
  0
LINE
  8
1
 10
3.034266
 20
20.148846
 30
0.000000
 11
2.999209
 21
20.090599
 31
0.000000
  0
LINE
  8
1
 10
2.999209
 20
20.090599
 30
0.000000
 11
2.965388
 21
20.033281
 31
0.000000
  0
LINE
  8
1
 10
2.965388
 20
20.033281
 30
0.000000
 11
2.932786
 21
19.976908
 31
0.000000
  0
LINE
  8
1
 10
2.932786
 20
19.976908
 30
0.000000
 11
2.901382
 21
19.921499
 31
0.000000
  0
LINE
  8
1
 10
2.901382
 20
19.921499
 30
0.000000
 11
2.871158
 21
19.867069
 31
0.000000
  0
LINE
  8
1
 10
2.871158
 20
19.867069
 30
0.000000
 11
2.842094
 21
19.813635
 31
0.000000
  0
LINE
  8
1
 10
2.842094
 20
19.813635
 30
0.000000
 11
2.814170
 21
19.761213
 31
0.000000
  0
LINE
  8
1
 10
2.814170
 20
19.761213
 30
0.000000
 11
2.787367
 21
19.709816
 31
0.000000
  0
LINE
  8
1
 10
2.787367
 20
19.709816
 30
0.000000
 11
2.761663
 21
19.659464
 31
0.000000
  0
LINE
  8
1
 10
2.761663
 20
19.659464
 30
0.000000
 11
2.737040
 21
19.610170
 31
0.000000
  0
LINE
  8
1
 10
2.737040
 20
19.610170
 30
0.000000
 11
2.713476
 21
19.561947
 31
0.000000
  0
LINE
  8
1
 10
2.713476
 20
19.561947
 30
0.000000
 11
2.690951
 21
19.514814
 31
0.000000
  0
LINE
  8
1
 10
2.690951
 20
19.514814
 30
0.000000
 11
2.669444
 21
19.468782
 31
0.000000
  0
LINE
  8
1
 10
2.669444
 20
19.468782
 30
0.000000
 11
2.648934
 21
19.423866
 31
0.000000
  0
LINE
  8
1
 10
2.648934
 20
19.423866
 30
0.000000
 11
2.629399
 21
19.380079
 31
0.000000
  0
LINE
  8
1
 10
2.629399
 20
19.380079
 30
0.000000
 11
2.610819
 21
19.337437
 31
0.000000
  0
LINE
  8
1
 10
2.610819
 20
19.337437
 30
0.000000
 11
2.593173
 21
19.295950
 31
0.000000
  0
LINE
  8
1
 10
2.593173
 20
19.295950
 30
0.000000
 11
2.576437
 21
19.255632
 31
0.000000
  0
LINE
  8
1
 10
2.576437
 20
19.255632
 30
0.000000
 11
2.560591
 21
19.216497
 31
0.000000
  0
LINE
  8
1
 10
2.560591
 20
19.216497
 30
0.000000
 11
2.545613
 21
19.178556
 31
0.000000
  0
LINE
  8
1
 10
2.545613
 20
19.178556
 30
0.000000
 11
2.531481
 21
19.141825
 31
0.000000
  0
LINE
  8
1
 10
2.531481
 20
19.141825
 30
0.000000
 11
2.518171
 21
19.106308
 31
0.000000
  0
LINE
  8
1
 10
2.518171
 20
19.106308
 30
0.000000
 11
2.505662
 21
19.072021
 31
0.000000
  0
LINE
  8
1
 10
2.505662
 20
19.072021
 30
0.000000
 11
2.493932
 21
19.038977
 31
0.000000
  0
LINE
  8
1
 10
2.493932
 20
19.038977
 30
0.000000
 11
2.482958
 21
19.007185
 31
0.000000
  0
LINE
  8
1
 10
2.482958
 20
19.007185
 30
0.000000
 11
2.472717
 21
18.976654
 31
0.000000
  0
LINE
  8
1
 10
2.472717
 20
18.976654
 30
0.000000
 11
2.463186
 21
18.947395
 31
0.000000
  0
LINE
  8
1
 10
2.463186
 20
18.947395
 30
0.000000
 11
2.454342
 21
18.919420
 31
0.000000
  0
LINE
  8
1
 10
2.454342
 20
18.919420
 30
0.000000
 11
2.446161
 21
18.892736
 31
0.000000
  0
LINE
  8
1
 10
2.446161
 20
18.892736
 30
0.000000
 11
2.438622
 21
18.867355
 31
0.000000
  0
LINE
  8
1
 10
2.438622
 20
18.867355
 30
0.000000
 11
2.431700
 21
18.843285
 31
0.000000
  0
LINE
  8
1
 10
2.431700
 20
18.843285
 30
0.000000
 11
2.425371
 21
18.820532
 31
0.000000
  0
LINE
  8
1
 10
2.425371
 20
18.820532
 30
0.000000
 11
2.419613
 21
18.799109
 31
0.000000
  0
LINE
  8
1
 10
2.419613
 20
18.799109
 30
0.000000
 11
2.414401
 21
18.779020
 31
0.000000
  0
LINE
  8
1
 10
2.414401
 20
18.779020
 30
0.000000
 11
2.409712
 21
18.760277
 31
0.000000
  0
LINE
  8
1
 10
2.409712
 20
18.760277
 30
0.000000
 11
2.405522
 21
18.742884
 31
0.000000
  0
LINE
  8
1
 10
2.405522
 20
18.742884
 30
0.000000
 11
2.401807
 21
18.726849
 31
0.000000
  0
LINE
  8
1
 10
2.401807
 20
18.726849
 30
0.000000
 11
2.398542
 21
18.712181
 31
0.000000
  0
LINE
  8
1
 10
2.398542
 20
18.712181
 30
0.000000
 11
2.395705
 21
18.698883
 31
0.000000
  0
LINE
  8
1
 10
2.395705
 20
18.698883
 30
0.000000
 11
2.393270
 21
18.686964
 31
0.000000
  0
LINE
  8
1
 10
2.393270
 20
18.686964
 30
0.000000
 11
2.391213
 21
18.676428
 31
0.000000
  0
LINE
  8
1
 10
2.391213
 20
18.676428
 30
0.000000
 11
2.389510
 21
18.667284
 31
0.000000
  0
LINE
  8
1
 10
2.389510
 20
18.667284
 30
0.000000
 11
2.388136
 21
18.659531
 31
0.000000
  0
LINE
  8
1
 10
2.388136
 20
18.659531
 30
0.000000
 11
2.387067
 21
18.653181
 31
0.000000
  0
LINE
  8
1
 10
2.387067
 20
18.653181
 30
0.000000
 11
2.386279
 21
18.648233
 31
0.000000
  0
LINE
  8
1
 10
2.386279
 20
18.648233
 30
0.000000
 11
2.385747
 21
18.644697
 31
0.000000
  0
LINE
  8
1
 10
2.385747
 20
18.644697
 30
0.000000
 11
2.385350
 21
18.641861
 31
0.000000
  0
LINE
  8
1
 10
2.385350
 20
18.641861
 30
0.000000
 11
2.221132
 21
17.358473
 31
0.000000
  0
LINE
  8
1
 10
2.221132
 20
17.358473
 30
0.000000
 11
0.000000
 21
17.500000
 31
0.000000
  0
LINE
  8
1
 10
0.000000
 20
17.500000
 30
0.000000
 11
0.000000
 21
18.793852
 31
0.000000
  0
LINE
  8
1
 10
0.000000
 20
18.793852
 30
0.000000
 11
-0.000033
 21
18.796715
 31
0.000000
  0
LINE
  8
1
 10
-0.000033
 20
18.796715
 30
0.000000
 11
-0.000112
 21
18.800291
 31
0.000000
  0
LINE
  8
1
 10
-0.000112
 20
18.800291
 30
0.000000
 11
-0.000266
 21
18.805298
 31
0.000000
  0
LINE
  8
1
 10
-0.000266
 20
18.805298
 30
0.000000
 11
-0.000520
 21
18.811733
 31
0.000000
  0
LINE
  8
1
 10
-0.000520
 20
18.811733
 30
0.000000
 11
-0.000899
 21
18.819597
 31
0.000000
  0
LINE
  8
1
 10
-0.000899
 20
18.819597
 30
0.000000
 11
-0.001427
 21
18.828884
 31
0.000000
  0
LINE
  8
1
 10
-0.001427
 20
18.828884
 30
0.000000
 11
-0.002131
 21
18.839596
 31
0.000000
  0
LINE
  8
1
 10
-0.002131
 20
18.839596
 30
0.000000
 11
-0.003033
 21
18.851727
 31
0.000000
  0
LINE
  8
1
 10
-0.003033
 20
18.851727
 30
0.000000
 11
-0.004160
 21
18.865278
 31
0.000000
  0
LINE
  8
1
 10
-0.004160
 20
18.865278
 30
0.000000
 11
-0.005536
 21
18.880241
 31
0.000000
  0
LINE
  8
1
 10
-0.005536
 20
18.880241
 30
0.000000
 11
-0.007186
 21
18.896618
 31
0.000000
  0
LINE
  8
1
 10
-0.007186
 20
18.896618
 30
0.000000
 11
-0.009135
 21
18.914402
 31
0.000000
  0
LINE
  8
1
 10
-0.009135
 20
18.914402
 30
0.000000
 11
-0.011407
 21
18.933590
 31
0.000000
  0
LINE
  8
1
 10
-0.011407
 20
18.933590
 30
0.000000
 11
-0.014027
 21
18.954176
 31
0.000000
  0
LINE
  8
1
 10
-0.014027
 20
18.954176
 30
0.000000
 11
-0.017020
 21
18.976158
 31
0.000000
  0
LINE
  8
1
 10
-0.017020
 20
18.976158
 30
0.000000
 11
-0.020409
 21
18.999529
 31
0.000000
  0
LINE
  8
1
 10
-0.020409
 20
18.999529
 30
0.000000
 11
-0.024220
 21
19.024284
 31
0.000000
  0
LINE
  8
1
 10
-0.024220
 20
19.024284
 30
0.000000
 11
-0.028478
 21
19.050417
 31
0.000000
  0
LINE
  8
1
 10
-0.028478
 20
19.050417
 30
0.000000
 11
-0.033205
 21
19.077923
 31
0.000000
  0
LINE
  8
1
 10
-0.033205
 20
19.077923
 30
0.000000
 11
-0.038427
 21
19.106794
 31
0.000000
  0
LINE
  8
1
 10
-0.038427
 20
19.106794
 30
0.000000
 11
-0.044168
 21
19.137026
 31
0.000000
  0
LINE
  8
1
 10
-0.044168
 20
19.137026
 30
0.000000
 11
-0.050451
 21
19.168610
 31
0.000000
  0
LINE
  8
1
 10
-0.050451
 20
19.168610
 30
0.000000
 11
-0.057301
 21
19.201538
 31
0.000000
  0
LINE
  8
1
 10
-0.057301
 20
19.201538
 30
0.000000
 11
-0.064742
 21
19.235804
 31
0.000000
  0
LINE
  8
1
 10
-0.064742
 20
19.235804
 30
0.000000
 11
-0.072798
 21
19.271400
 31
0.000000
  0
LINE
  8
1
 10
-0.072798
 20
19.271400
 30
0.000000
 11
-0.081492
 21
19.308319
 31
0.000000
  0
LINE
  8
1
 10
-0.081492
 20
19.308319
 30
0.000000
 11
-0.090848
 21
19.346548
 31
0.000000
  0
LINE
  8
1
 10
-0.090848
 20
19.346548
 30
0.000000
 11
-0.100890
 21
19.386084
 31
0.000000
  0
LINE
  8
1
 10
-0.100890
 20
19.386084
 30
0.000000
 11
-0.111640
 21
19.426912
 31
0.000000
  0
LINE
  8
1
 10
-0.111640
 20
19.426912
 30
0.000000
 11
-0.123123
 21
19.469028
 31
0.000000
  0
LINE
  8
1
 10
-0.123123
 20
19.469028
 30
0.000000
 11
-0.135362
 21
19.512419
 31
0.000000
  0
LINE
  8
1
 10
-0.135362
 20
19.512419
 30
0.000000
 11
-0.148379
 21
19.557076
 31
0.000000
  0
LINE
  8
1
 10
-0.148379
 20
19.557076
 30
0.000000
 11
-0.162198
 21
19.602987
 31
0.000000
  0
LINE
  8
1
 10
-0.162198
 20
19.602987
 30
0.000000
 11
-0.176841
 21
19.650143
 31
0.000000
  0
LINE
  8
1
 10
-0.176841
 20
19.650143
 30
0.000000
 11
-0.192332
 21
19.698532
 31
0.000000
  0
LINE
  8
1
 10
-0.192332
 20
19.698532
 30
0.000000
 11
-0.208693
 21
19.748144
 31
0.000000
  0
LINE
  8
1
 10
-0.208693
 20
19.748144
 30
0.000000
 11
-0.225946
 21
19.798967
 31
0.000000
  0
LINE
  8
1
 10
-0.225946
 20
19.798967
 30
0.000000
 11
-0.244113
 21
19.850988
 31
0.000000
  0
LINE
  8
1
 10
-0.244113
 20
19.850988
 30
0.000000
 11
-0.263218
 21
19.904196
 31
0.000000
  0
LINE
  8
1
 10
-0.263218
 20
19.904196
 30
0.000000
 11
-0.283282
 21
19.958578
 31
0.000000
  0
LINE
  8
1
 10
-0.283282
 20
19.958578
 30
0.000000
 11
-0.304326
 21
20.014120
 31
0.000000
  0
LINE
  8
1
 10
-0.304326
 20
20.014120
 30
0.000000
 11
-0.326373
 21
20.070812
 31
0.000000
  0
LINE
  8
1
 10
-0.326373
 20
20.070812
 30
0.000000
 11
-0.349444
 21
20.128637
 31
0.000000
  0
LINE
  8
1
 10
-0.349444
 20
20.128637
 30
0.000000
 11
-0.373561
 21
20.187584
 31
0.000000
  0
LINE
  8
1
 10
-0.373561
 20
20.187584
 30
0.000000
 11
-0.398745
 21
20.247639
 31
0.000000
  0
LINE
  8
1
 10
-0.398745
 20
20.247639
 30
0.000000
 11
-0.425017
 21
20.308786
 31
0.000000
  0
LINE
  8
1
 10
-0.425017
 20
20.308786
 30
0.000000
 11
-0.452398
 21
20.371012
 31
0.000000
  0
LINE
  8
1
 10
-0.452398
 20
20.371012
 30
0.000000
 11
-0.480909
 21
20.434301
 31
0.000000
  0
LINE
  8
1
 10
-0.480909
 20
20.434301
 30
0.000000
 11
-0.510570
 21
20.498638
 31
0.000000
  0
LINE
  8
1
 10
-0.510570
 20
20.498638
 30
0.000000
 11
-0.541403
 21
20.564009
 31
0.000000
  0
LINE
  8
1
 10
-0.541403
 20
20.564009
 30
0.000000
 11
-0.573426
 21
20.630398
 31
0.000000
  0
LINE
  8
1
 10
-0.573426
 20
20.630398
 30
0.000000
 11
-0.606660
 21
20.697788
 31
0.000000
  0
LINE
  8
1
 10
-0.606660
 20
20.697788
 30
0.000000
 11
-0.641125
 21
20.766163
 31
0.000000
  0
LINE
  8
1
 10
-0.641125
 20
20.766163
 30
0.000000
 11
-0.676841
 21
20.835508
 31
0.000000
  0
LINE
  8
1
 10
-0.676841
 20
20.835508
 30
0.000000
 11
-0.713827
 21
20.905806
 31
0.000000
  0
LINE
  8
1
 10
-0.713827
 20
20.905806
 30
0.000000
 11
-0.752103
 21
20.977037
 31
0.000000
  0
LINE
  8
1
 10
-0.752103
 20
20.977037
 30
0.000000
 11
-0.791687
 21
21.049187
 31
0.000000
  0
LINE
  8
1
 10
-0.791687
 20
21.049187
 30
0.000000
 11
-0.832599
 21
21.122238
 31
0.000000
  0
LINE
  8
1
 10
-0.832599
 20
21.122238
 30
0.000000
 11
-0.874857
 21
21.196173
 31
0.000000
  0
LINE
  8
1
 10
-0.874857
 20
21.196173
 30
0.000000
 11
-0.918479
 21
21.270971
 31
0.000000
  0
LINE
  8
1
 10
-0.918479
 20
21.270971
 30
0.000000
 11
-0.963484
 21
21.346615
 31
0.000000
  0
LINE
  8
1
 10
-0.963484
 20
21.346615
 30
0.000000
 11
-1.009890
 21
21.423088
 31
0.000000
  0
LINE
  8
1
 10
-1.009890
 20
21.423088
 30
0.000000
 11
-1.057715
 21
21.500370
 31
0.000000
  0
LINE
  8
1
 10
-1.057715
 20
21.500370
 30
0.000000
 11
-1.106976
 21
21.578442
 31
0.000000
  0
LINE
  8
1
 10
-1.106976
 20
21.578442
 30
0.000000
 11
-1.157691
 21
21.657286
 31
0.000000
  0
LINE
  8
1
 10
-1.157691
 20
21.657286
 30
0.000000
 11
-1.209877
 21
21.736879
 31
0.000000
  0
LINE
  8
1
 10
-1.209877
 20
21.736879
 30
0.000000
 11
-1.263550
 21
21.817205
 31
0.000000
  0
LINE
  8
1
 10
-1.263550
 20
21.817205
 30
0.000000
 11
-1.318728
 21
21.898243
 31
0.000000
  0
LINE
  8
1
 10
-1.318728
 20
21.898243
 30
0.000000
 11
-1.360125
 21
21.957916
 31
0.000000
  0
LINE
  8
1
 10
-1.360125
 20
21.957916
 30
0.000000
 11
-2.743518
 21
21.828264
 31
0.000000
  0
LINE
  8
1
 10
-2.743518
 20
21.828264
 30
0.000000
 11
-2.773106
 21
21.761940
 31
0.000000
  0
LINE
  8
1
 10
-2.773106
 20
21.761940
 30
0.000000
 11
-2.812266
 21
21.672060
 31
0.000000
  0
LINE
  8
1
 10
-2.812266
 20
21.672060
 30
0.000000
 11
-2.850079
 21
21.583160
 31
0.000000
  0
LINE
  8
1
 10
-2.850079
 20
21.583160
 30
0.000000
 11
-2.886567
 21
21.495256
 31
0.000000
  0
LINE
  8
1
 10
-2.886567
 20
21.495256
 30
0.000000
 11
-2.921748
 21
21.408361
 31
0.000000
  0
LINE
  8
1
 10
-2.921748
 20
21.408361
 30
0.000000
 11
-2.955646
 21
21.322496
 31
0.000000
  0
LINE
  8
1
 10
-2.955646
 20
21.322496
 30
0.000000
 11
-2.988278
 21
21.237675
 31
0.000000
  0
LINE
  8
1
 10
-2.988278
 20
21.237675
 30
0.000000
 11
-3.019666
 21
21.153910
 31
0.000000
  0
LINE
  8
1
 10
-3.019666
 20
21.153910
 30
0.000000
 11
-3.049833
 21
21.071220
 31
0.000000
  0
LINE
  8
1
 10
-3.049833
 20
21.071220
 30
0.000000
 11
-3.078797
 21
20.989620
 31
0.000000
  0
LINE
  8
1
 10
-3.078797
 20
20.989620
 30
0.000000
 11
-3.106582
 21
20.909121
 31
0.000000
  0
LINE
  8
1
 10
-3.106582
 20
20.909121
 30
0.000000
 11
-3.133207
 21
20.829741
 31
0.000000
  0
LINE
  8
1
 10
-3.133207
 20
20.829741
 30
0.000000
 11
-3.158696
 21
20.751492
 31
0.000000
  0
LINE
  8
1
 10
-3.158696
 20
20.751492
 30
0.000000
 11
-3.183070
 21
20.674389
 31
0.000000
  0
LINE
  8
1
 10
-3.183070
 20
20.674389
 30
0.000000
 11
-3.206350
 21
20.598444
 31
0.000000
  0
LINE
  8
1
 10
-3.206350
 20
20.598444
 30
0.000000
 11
-3.228559
 21
20.523668
 31
0.000000
  0
LINE
  8
1
 10
-3.228559
 20
20.523668
 30
0.000000
 11
-3.249720
 21
20.450081
 31
0.000000
  0
LINE
  8
1
 10
-3.249720
 20
20.450081
 30
0.000000
 11
-3.269854
 21
20.377689
 31
0.000000
  0
LINE
  8
1
 10
-3.269854
 20
20.377689
 30
0.000000
 11
-3.288984
 21
20.306505
 31
0.000000
  0
LINE
  8
1
 10
-3.288984
 20
20.306505
 30
0.000000
 11
-3.307132
 21
20.236546
 31
0.000000
  0
LINE
  8
1
 10
-3.307132
 20
20.236546
 30
0.000000
 11
-3.324323
 21
20.167816
 31
0.000000
  0
LINE
  8
1
 10
-3.324323
 20
20.167816
 30
0.000000
 11
-3.340578
 21
20.100332
 31
0.000000
  0
LINE
  8
1
 10
-3.340578
 20
20.100332
 30
0.000000
 11
-3.355920
 21
20.034103
 31
0.000000
  0
LINE
  8
1
 10
-3.355920
 20
20.034103
 30
0.000000
 11
-3.370373
 21
19.969139
 31
0.000000
  0
LINE
  8
1
 10
-3.370373
 20
19.969139
 30
0.000000
 11
-3.383959
 21
19.905449
 31
0.000000
  0
LINE
  8
1
 10
-3.383959
 20
19.905449
 30
0.000000
 11
-3.396703
 21
19.843048
 31
0.000000
  0
LINE
  8
1
 10
-3.396703
 20
19.843048
 30
0.000000
 11
-3.408629
 21
19.781944
 31
0.000000
  0
LINE
  8
1
 10
-3.408629
 20
19.781944
 30
0.000000
 11
-3.419758
 21
19.722141
 31
0.000000
  0
LINE
  8
1
 10
-3.419758
 20
19.722141
 30
0.000000
 11
-3.430116
 21
19.663656
 31
0.000000
  0
LINE
  8
1
 10
-3.430116
 20
19.663656
 30
0.000000
 11
-3.439725
 21
19.606493
 31
0.000000
  0
LINE
  8
1
 10
-3.439725
 20
19.606493
 30
0.000000
 11
-3.448611
 21
19.550663
 31
0.000000
  0
LINE
  8
1
 10
-3.448611
 20
19.550663
 30
0.000000
 11
-3.456796
 21
19.496172
 31
0.000000
  0
LINE
  8
1
 10
-3.456796
 20
19.496172
 30
0.000000
 11
-3.464306
 21
19.443029
 31
0.000000
  0
LINE
  8
1
 10
-3.464306
 20
19.443029
 30
0.000000
 11
-3.471163
 21
19.391241
 31
0.000000
  0
LINE
  8
1
 10
-3.471163
 20
19.391241
 30
0.000000
 11
-3.477393
 21
19.340815
 31
0.000000
  0
LINE
  8
1
 10
-3.477393
 20
19.340815
 30
0.000000
 11
-3.483019
 21
19.291759
 31
0.000000
  0
LINE
  8
1
 10
-3.483019
 20
19.291759
 30
0.000000
 11
-3.488067
 21
19.244080
 31
0.000000
  0
LINE
  8
1
 10
-3.488067
 20
19.244080
 30
0.000000
 11
-3.492560
 21
19.197783
 31
0.000000
  0
LINE
  8
1
 10
-3.492560
 20
19.197783
 30
0.000000
 11
-3.496523
 21
19.152874
 31
0.000000
  0
LINE
  8
1
 10
-3.496523
 20
19.152874
 30
0.000000
 11
-3.499980
 21
19.109358
 31
0.000000
  0
LINE
  8
1
 10
-3.499980
 20
19.109358
 30
0.000000
 11
-3.502958
 21
19.067242
 31
0.000000
  0
LINE
  8
1
 10
-3.502958
 20
19.067242
 30
0.000000
 11
-3.505478
 21
19.026529
 31
0.000000
  0
LINE
  8
1
 10
-3.505478
 20
19.026529
 30
0.000000
 11
-3.507568
 21
18.987228
 31
0.000000
  0
LINE
  8
1
 10
-3.507568
 20
18.987228
 30
0.000000
 11
-3.509251
 21
18.949337
 31
0.000000
  0
LINE
  8
1
 10
-3.509251
 20
18.949337
 30
0.000000
 11
-3.510552
 21
18.912863
 31
0.000000
  0
LINE
  8
1
 10
-3.510552
 20
18.912863
 30
0.000000
 11
-3.511497
 21
18.877811
 31
0.000000
  0
LINE
  8
1
 10
-3.511497
 20
18.877811
 30
0.000000
 11
-3.512110
 21
18.844183
 31
0.000000
  0
LINE
  8
1
 10
-3.512110
 20
18.844183
 30
0.000000
 11
-3.512415
 21
18.811981
 31
0.000000
  0
LINE
  8
1
 10
-3.512415
 20
18.811981
 30
0.000000
 11
-3.512439
 21
18.781210
 31
0.000000
  0
LINE
  8
1
 10
-3.512439
 20
18.781210
 30
0.000000
 11
-3.512205
 21
18.751871
 31
0.000000
  0
LINE
  8
1
 10
-3.512205
 20
18.751871
 30
0.000000
 11
-3.511739
 21
18.723967
 31
0.000000
  0
LINE
  8
1
 10
-3.511739
 20
18.723967
 30
0.000000
 11
-3.511066
 21
18.697498
 31
0.000000
  0
LINE
  8
1
 10
-3.511066
 20
18.697498
 30
0.000000
 11
-3.510211
 21
18.672464
 31
0.000000
  0
LINE
  8
1
 10
-3.510211
 20
18.672464
 30
0.000000
 11
-3.509200
 21
18.648870
 31
0.000000
  0
LINE
  8
1
 10
-3.509200
 20
18.648870
 30
0.000000
 11
-3.508056
 21
18.626717
 31
0.000000
  0
LINE
  8
1
 10
-3.508056
 20
18.626717
 30
0.000000
 11
-3.506805
 21
18.606001
 31
0.000000
  0
LINE
  8
1
 10
-3.506805
 20
18.606001
 30
0.000000
 11
-3.505472
 21
18.586725
 31
0.000000
  0
LINE
  8
1
 10
-3.505472
 20
18.586725
 30
0.000000
 11
-3.504082
 21
18.568890
 31
0.000000
  0
LINE
  8
1
 10
-3.504082
 20
18.568890
 30
0.000000
 11
-3.502661
 21
18.552490
 31
0.000000
  0
LINE
  8
1
 10
-3.502661
 20
18.552490
 30
0.000000
 11
-3.501233
 21
18.537533
 31
0.000000
  0
LINE
  8
1
 10
-3.501233
 20
18.537533
 30
0.000000
 11
-3.499822
 21
18.524008
 31
0.000000
  0
LINE
  8
1
 10
-3.499822
 20
18.524008
 30
0.000000
 11
-3.498455
 21
18.511921
 31
0.000000
  0
LINE
  8
1
 10
-3.498455
 20
18.511921
 30
0.000000
 11
-3.497156
 21
18.501265
 31
0.000000
  0
LINE
  8
1
 10
-3.497156
 20
18.501265
 30
0.000000
 11
-3.495949
 21
18.492041
 31
0.000000
  0
LINE
  8
1
 10
-3.495949
 20
18.492041
 30
0.000000
 11
-3.494860
 21
18.484243
 31
0.000000
  0
LINE
  8
1
 10
-3.494860
 20
18.484243
 30
0.000000
 11
-3.493914
 21
18.477873
 31
0.000000
  0
LINE
  8
1
 10
-3.493914
 20
18.477873
 30
0.000000
 11
-3.493135
 21
18.472925
 31
0.000000
  0
LINE
  8
1
 10
-3.493135
 20
18.472925
 30
0.000000
 11
-3.492548
 21
18.469397
 31
0.000000
  0
LINE
  8
1
 10
-3.492548
 20
18.469397
 30
0.000000
 11
-3.492049
 21
18.466578
 31
0.000000
  0
LINE
  8
1
 10
-3.492049
 20
18.466578
 30
0.000000
 11
-3.251641
 21
17.195257
 31
0.000000
  0
LINE
  8
1
 10
-3.251641
 20
17.195257
 30
0.000000
 11
-5.407797
 21
16.643490
 31
0.000000
  0
LINE
  8
1
 10
-5.407797
 20
16.643490
 30
0.000000
 11
-5.807620
 21
17.874016
 31
0.000000
  0
LINE
  8
1
 10
-5.807620
 20
17.874016
 30
0.000000
 11
-5.808536
 21
17.876728
 31
0.000000
  0
LINE
  8
1
 10
-5.808536
 20
17.876728
 30
0.000000
 11
-5.809717
 21
17.880106
 31
0.000000
  0
LINE
  8
1
 10
-5.809717
 20
17.880106
 30
0.000000
 11
-5.811410
 21
17.884819
 31
0.000000
  0
LINE
  8
1
 10
-5.811410
 20
17.884819
 30
0.000000
 11
-5.813640
 21
17.890862
 31
0.000000
  0
LINE
  8
1
 10
-5.813640
 20
17.890862
 30
0.000000
 11
-5.816431
 21
17.898224
 31
0.000000
  0
LINE
  8
1
 10
-5.816431
 20
17.898224
 30
0.000000
 11
-5.819803
 21
17.906893
 31
0.000000
  0
LINE
  8
1
 10
-5.819803
 20
17.906893
 30
0.000000
 11
-5.823781
 21
17.916862
 31
0.000000
  0
LINE
  8
1
 10
-5.823781
 20
17.916862
 30
0.000000
 11
-5.828389
 21
17.928120
 31
0.000000
  0
LINE
  8
1
 10
-5.828389
 20
17.928120
 30
0.000000
 11
-5.833648
 21
17.940660
 31
0.000000
  0
LINE
  8
1
 10
-5.833648
 20
17.940660
 30
0.000000
 11
-5.839581
 21
17.954466
 31
0.000000
  0
LINE
  8
1
 10
-5.839581
 20
17.954466
 30
0.000000
 11
-5.846211
 21
17.969532
 31
0.000000
  0
LINE
  8
1
 10
-5.846211
 20
17.969532
 30
0.000000
 11
-5.853559
 21
17.985844
 31
0.000000
  0
LINE
  8
1
 10
-5.853559
 20
17.985844
 30
0.000000
 11
-5.861650
 21
18.003389
 31
0.000000
  0
LINE
  8
1
 10
-5.861650
 20
18.003389
 30
0.000000
 11
-5.870503
 21
18.022158
 31
0.000000
  0
LINE
  8
1
 10
-5.870503
 20
18.022158
 30
0.000000
 11
-5.880142
 21
18.042139
 31
0.000000
  0
LINE
  8
1
 10
-5.880142
 20
18.042139
 30
0.000000
 11
-5.890588
 21
18.063320
 31
0.000000
  0
LINE
  8
1
 10
-5.890588
 20
18.063320
 30
0.000000
 11
-5.901862
 21
18.085686
 31
0.000000
  0
LINE
  8
1
 10
-5.901862
 20
18.085686
 30
0.000000
 11
-5.913987
 21
18.109224
 31
0.000000
  0
LINE
  8
1
 10
-5.913987
 20
18.109224
 30
0.000000
 11
-5.926982
 21
18.133923
 31
0.000000
  0
LINE
  8
1
 10
-5.926982
 20
18.133923
 30
0.000000
 11
-5.940870
 21
18.159767
 31
0.000000
  0
LINE
  8
1
 10
-5.940870
 20
18.159767
 30
0.000000
 11
-5.955672
 21
18.186745
 31
0.000000
  0
LINE
  8
1
 10
-5.955672
 20
18.186745
 30
0.000000
 11
-5.971408
 21
18.214842
 31
0.000000
  0
LINE
  8
1
 10
-5.971408
 20
18.214842
 30
0.000000
 11
-5.988099
 21
18.244041
 31
0.000000
  0
LINE
  8
1
 10
-5.988099
 20
18.244041
 30
0.000000
 11
-6.005764
 21
18.274330
 31
0.000000
  0
LINE
  8
1
 10
-6.005764
 20
18.274330
 30
0.000000
 11
-6.024426
 21
18.305696
 31
0.000000
  0
LINE
  8
1
 10
-6.024426
 20
18.305696
 30
0.000000
 11
-6.044102
 21
18.338121
 31
0.000000
  0
LINE
  8
1
 10
-6.044102
 20
18.338121
 30
0.000000
 11
-6.064814
 21
18.371588
 31
0.000000
  0
LINE
  8
1
 10
-6.064814
 20
18.371588
 30
0.000000
 11
-6.086581
 21
18.406084
 31
0.000000
  0
LINE
  8
1
 10
-6.086581
 20
18.406084
 30
0.000000
 11
-6.109422
 21
18.441593
 31
0.000000
  0
LINE
  8
1
 10
-6.109422
 20
18.441593
 30
0.000000
 11
-6.133358
 21
18.478100
 31
0.000000
  0
LINE
  8
1
 10
-6.133358
 20
18.478100
 30
0.000000
 11
-6.158406
 21
18.515585
 31
0.000000
  0
LINE
  8
1
 10
-6.158406
 20
18.515585
 30
0.000000
 11
-6.184586
 21
18.554033
 31
0.000000
  0
LINE
  8
1
 10
-6.184586
 20
18.554033
 30
0.000000
 11
-6.211916
 21
18.593428
 31
0.000000
  0
LINE
  8
1
 10
-6.211916
 20
18.593428
 30
0.000000
 11
-6.240414
 21
18.633749
 31
0.000000
  0
LINE
  8
1
 10
-6.240414
 20
18.633749
 30
0.000000
 11
-6.270100
 21
18.674984
 31
0.000000
  0
LINE
  8
1
 10
-6.270100
 20
18.674984
 30
0.000000
 11
-6.300991
 21
18.717112
 31
0.000000
  0
LINE
  8
1
 10
-6.300991
 20
18.717112
 30
0.000000
 11
-6.333105
 21
18.760117
 31
0.000000
  0
LINE
  8
1
 10
-6.333105
 20
18.760117
 30
0.000000
 11
-6.366458
 21
18.803978
 31
0.000000
  0
LINE
  8
1
 10
-6.366458
 20
18.803978
 30
0.000000
 11
-6.401070
 21
18.848677
 31
0.000000
  0
LINE
  8
1
 10
-6.401070
 20
18.848677
 30
0.000000
 11
-6.436957
 21
18.894197
 31
0.000000
  0
LINE
  8
1
 10
-6.436957
 20
18.894197
 30
0.000000
 11
-6.474135
 21
18.940517
 31
0.000000
  0
LINE
  8
1
 10
-6.474135
 20
18.940517
 30
0.000000
 11
-6.512621
 21
18.987623
 31
0.000000
  0
LINE
  8
1
 10
-6.512621
 20
18.987623
 30
0.000000
 11
-6.552433
 21
19.035488
 31
0.000000
  0
LINE
  8
1
 10
-6.552433
 20
19.035488
 30
0.000000
 11
-6.593585
 21
19.084097
 31
0.000000
  0
LINE
  8
1
 10
-6.593585
 20
19.084097
 30
0.000000
 11
-6.636094
 21
19.133430
 31
0.000000
  0
LINE
  8
1
 10
-6.636094
 20
19.133430
 30
0.000000
 11
-6.679976
 21
19.183466
 31
0.000000
  0
LINE
  8
1
 10
-6.679976
 20
19.183466
 30
0.000000
 11
-6.725245
 21
19.234184
 31
0.000000
  0
LINE
  8
1
 10
-6.725245
 20
19.234184
 30
0.000000
 11
-6.771918
 21
19.285566
 31
0.000000
  0
LINE
  8
1
 10
-6.771918
 20
19.285566
 30
0.000000
 11
-6.820009
 21
19.337589
 31
0.000000
  0
LINE
  8
1
 10
-6.820009
 20
19.337589
 30
0.000000
 11
-6.869533
 21
19.390232
 31
0.000000
  0
LINE
  8
1
 10
-6.869533
 20
19.390232
 30
0.000000
 11
-6.920504
 21
19.443476
 31
0.000000
  0
LINE
  8
1
 10
-6.920504
 20
19.443476
 30
0.000000
 11
-6.972937
 21
19.497299
 31
0.000000
  0
LINE
  8
1
 10
-6.972937
 20
19.497299
 30
0.000000
 11
-7.026844
 21
19.551676
 31
0.000000
  0
LINE
  8
1
 10
-7.026844
 20
19.551676
 30
0.000000
 11
-7.082241
 21
19.606590
 31
0.000000
  0
LINE
  8
1
 10
-7.082241
 20
19.606590
 30
0.000000
 11
-7.139140
 21
19.662018
 31
0.000000
  0
LINE
  8
1
 10
-7.139140
 20
19.662018
 30
0.000000
 11
-7.197554
 21
19.717936
 31
0.000000
  0
LINE
  8
1
 10
-7.197554
 20
19.717936
 30
0.000000
 11
-7.257496
 21
19.774323
 31
0.000000
  0
LINE
  8
1
 10
-7.257496
 20
19.774323
 30
0.000000
 11
-7.318979
 21
19.831156
 31
0.000000
  0
LINE
  8
1
 10
-7.318979
 20
19.831156
 30
0.000000
 11
-7.382016
 21
19.888412
 31
0.000000
  0
LINE
  8
1
 10
-7.382016
 20
19.888412
 30
0.000000
 11
-7.446618
 21
19.946072
 31
0.000000
  0
LINE
  8
1
 10
-7.446618
 20
19.946072
 30
0.000000
 11
-7.512795
 21
20.004105
 31
0.000000
  0
LINE
  8
1
 10
-7.512795
 20
20.004105
 30
0.000000
 11
-7.580561
 21
20.062494
 31
0.000000
  0
LINE
  8
1
 10
-7.580561
 20
20.062494
 30
0.000000
 11
-7.649927
 21
20.121216
 31
0.000000
  0
LINE
  8
1
 10
-7.649927
 20
20.121216
 30
0.000000
 11
-7.720902
 21
20.180244
 31
0.000000
  0
LINE
  8
1
 10
-7.720902
 20
20.180244
 30
0.000000
 11
-7.793499
 21
20.239557
 31
0.000000
  0
LINE
  8
1
 10
-7.793499
 20
20.239557
 30
0.000000
 11
-7.867727
 21
20.299129
 31
0.000000
  0
LINE
  8
1
 10
-7.867727
 20
20.299129
 30
0.000000
 11
-7.943595
 21
20.358938
 31
0.000000
  0
LINE
  8
1
 10
-7.943595
 20
20.358938
 30
0.000000
 11
-8.021114
 21
20.418959
 31
0.000000
  0
LINE
  8
1
 10
-8.021114
 20
20.418959
 30
0.000000
 11
-8.078925
 21
20.462917
 31
0.000000
  0
LINE
  8
1
 10
-8.078925
 20
20.462917
 30
0.000000
 11
-9.354546
 21
19.912121
 31
0.000000
  0
LINE
  8
1
 10
-9.354546
 20
19.912121
 30
0.000000
 11
-9.362189
 21
19.839897
 31
0.000000
  0
LINE
  8
1
 10
-9.362189
 20
19.839897
 30
0.000000
 11
-9.371658
 21
19.742315
 31
0.000000
  0
LINE
  8
1
 10
-9.371658
 20
19.742315
 30
0.000000
 11
-9.380149
 21
19.646082
 31
0.000000
  0
LINE
  8
1
 10
-9.380149
 20
19.646082
 30
0.000000
 11
-9.387688
 21
19.551205
 31
0.000000
  0
LINE
  8
1
 10
-9.387688
 20
19.551205
 30
0.000000
 11
-9.394296
 21
19.457691
 31
0.000000
  0
LINE
  8
1
 10
-9.394296
 20
19.457691
 30
0.000000
 11
-9.400000
 21
19.365555
 31
0.000000
  0
LINE
  8
1
 10
-9.400000
 20
19.365555
 30
0.000000
 11
-9.404823
 21
19.274799
 31
0.000000
  0
LINE
  8
1
 10
-9.404823
 20
19.274799
 30
0.000000
 11
-9.408792
 21
19.185434
 31
0.000000
  0
LINE
  8
1
 10
-9.408792
 20
19.185434
 30
0.000000
 11
-9.411929
 21
19.097471
 31
0.000000
  0
LINE
  8
1
 10
-9.411929
 20
19.097471
 30
0.000000
 11
-9.414260
 21
19.010914
 31
0.000000
  0
LINE
  8
1
 10
-9.414260
 20
19.010914
 30
0.000000
 11
-9.415809
 21
18.925770
 31
0.000000
  0
LINE
  8
1
 10
-9.415809
 20
18.925770
 30
0.000000
 11
-9.416601
 21
18.842045
 31
0.000000
  0
LINE
  8
1
 10
-9.416601
 20
18.842045
 30
0.000000
 11
-9.416662
 21
18.759750
 31
0.000000
  0
LINE
  8
1
 10
-9.416662
 20
18.759750
 30
0.000000
 11
-9.416017
 21
18.678888
 31
0.000000
  0
LINE
  8
1
 10
-9.416017
 20
18.678888
 30
0.000000
 11
-9.414689
 21
18.599466
 31
0.000000
  0
LINE
  8
1
 10
-9.414689
 20
18.599466
 30
0.000000
 11
-9.412704
 21
18.521488
 31
0.000000
  0
LINE
  8
1
 10
-9.412704
 20
18.521488
 30
0.000000
 11
-9.410089
 21
18.444963
 31
0.000000
  0
LINE
  8
1
 10
-9.410089
 20
18.444963
 30
0.000000
 11
-9.406868
 21
18.369894
 31
0.000000
  0
LINE
  8
1
 10
-9.406868
 20
18.369894
 30
0.000000
 11
-9.403065
 21
18.296282
 31
0.000000
  0
LINE
  8
1
 10
-9.403065
 20
18.296282
 30
0.000000
 11
-9.398706
 21
18.224138
 31
0.000000
  0
LINE
  8
1
 10
-9.398706
 20
18.224138
 30
0.000000
 11
-9.393817
 21
18.153461
 31
0.000000
  0
LINE
  8
1
 10
-9.393817
 20
18.153461
 30
0.000000
 11
-9.388422
 21
18.084257
 31
0.000000
  0
LINE
  8
1
 10
-9.388422
 20
18.084257
 30
0.000000
 11
-9.382547
 21
18.016527
 31
0.000000
  0
LINE
  8
1
 10
-9.382547
 20
18.016527
 30
0.000000
 11
-9.376218
 21
17.950275
 31
0.000000
  0
LINE
  8
1
 10
-9.376218
 20
17.950275
 30
0.000000
 11
-9.369459
 21
17.885506
 31
0.000000
  0
LINE
  8
1
 10
-9.369459
 20
17.885506
 30
0.000000
 11
-9.362296
 21
17.822222
 31
0.000000
  0
LINE
  8
1
 10
-9.362296
 20
17.822222
 30
0.000000
 11
-9.354755
 21
17.760422
 31
0.000000
  0
LINE
  8
1
 10
-9.354755
 20
17.760422
 30
0.000000
 11
-9.346860
 21
17.700108
 31
0.000000
  0
LINE
  8
1
 10
-9.346860
 20
17.700108
 30
0.000000
 11
-9.338638
 21
17.641285
 31
0.000000
  0
LINE
  8
1
 10
-9.338638
 20
17.641285
 30
0.000000
 11
-9.330113
 21
17.583950
 31
0.000000
  0
LINE
  8
1
 10
-9.330113
 20
17.583950
 30
0.000000
 11
-9.321311
 21
17.528107
 31
0.000000
  0
LINE
  8
1
 10
-9.321311
 20
17.528107
 30
0.000000
 11
-9.312257
 21
17.473753
 31
0.000000
  0
LINE
  8
1
 10
-9.312257
 20
17.473753
 30
0.000000
 11
-9.302977
 21
17.420889
 31
0.000000
  0
LINE
  8
1
 10
-9.302977
 20
17.420889
 30
0.000000
 11
-9.293495
 21
17.369516
 31
0.000000
  0
LINE
  8
1
 10
-9.293495
 20
17.369516
 30
0.000000
 11
-9.283837
 21
17.319635
 31
0.000000
  0
LINE
  8
1
 10
-9.283837
 20
17.319635
 30
0.000000
 11
-9.274030
 21
17.271242
 31
0.000000
  0
LINE
  8
1
 10
-9.274030
 20
17.271242
 30
0.000000
 11
-9.264096
 21
17.224337
 31
0.000000
  0
LINE
  8
1
 10
-9.264096
 20
17.224337
 30
0.000000
 11
-9.254063
 21
17.178915
 31
0.000000
  0
LINE
  8
1
 10
-9.254063
 20
17.178915
 30
0.000000
 11
-9.243955
 21
17.134979
 31
0.000000
  0
LINE
  8
1
 10
-9.243955
 20
17.134979
 30
0.000000
 11
-9.233795
 21
17.092525
 31
0.000000
  0
LINE
  8
1
 10
-9.233795
 20
17.092525
 30
0.000000
 11
-9.223613
 21
17.051552
 31
0.000000
  0
LINE
  8
1
 10
-9.223613
 20
17.051552
 30
0.000000
 11
-9.213428
 21
17.012053
 31
0.000000
  0
LINE
  8
1
 10
-9.213428
 20
17.012053
 30
0.000000
 11
-9.203272
 21
16.974028
 31
0.000000
  0
LINE
  8
1
 10
-9.203272
 20
16.974028
 30
0.000000
 11
-9.193163
 21
16.937471
 31
0.000000
  0
LINE
  8
1
 10
-9.193163
 20
16.937471
 30
0.000000
 11
-9.183129
 21
16.902380
 31
0.000000
  0
LINE
  8
1
 10
-9.183129
 20
16.902380
 30
0.000000
 11
-9.173197
 21
16.868753
 31
0.000000
  0
LINE
  8
1
 10
-9.173197
 20
16.868753
 30
0.000000
 11
-9.163387
 21
16.836582
 31
0.000000
  0
LINE
  8
1
 10
-9.163387
 20
16.836582
 30
0.000000
 11
-9.153728
 21
16.805862
 31
0.000000
  0
LINE
  8
1
 10
-9.153728
 20
16.805862
 30
0.000000
 11
-9.144240
 21
16.776588
 31
0.000000
  0
LINE
  8
1
 10
-9.144240
 20
16.776588
 30
0.000000
 11
-9.134953
 21
16.748758
 31
0.000000
  0
LINE
  8
1
 10
-9.134953
 20
16.748758
 30
0.000000
 11
-9.125886
 21
16.722363
 31
0.000000
  0
LINE
  8
1
 10
-9.125886
 20
16.722363
 30
0.000000
 11
-9.117067
 21
16.697397
 31
0.000000
  0
LINE
  8
1
 10
-9.117067
 20
16.697397
 30
0.000000
 11
-9.108519
 21
16.673855
 31
0.000000
  0
LINE
  8
1
 10
-9.108519
 20
16.673855
 30
0.000000
 11
-9.100266
 21
16.651728
 31
0.000000
  0
LINE
  8
1
 10
-9.100266
 20
16.651728
 30
0.000000
 11
-9.092331
 21
16.631010
 31
0.000000
  0
LINE
  8
1
 10
-9.092331
 20
16.631010
 30
0.000000
 11
-9.084741
 21
16.611696
 31
0.000000
  0
LINE
  8
1
 10
-9.084741
 20
16.611696
 30
0.000000
 11
-9.077517
 21
16.593777
 31
0.000000
  0
LINE
  8
1
 10
-9.077517
 20
16.593777
 30
0.000000
 11
-9.070683
 21
16.577242
 31
0.000000
  0
LINE
  8
1
 10
-9.070683
 20
16.577242
 30
0.000000
 11
-9.064263
 21
16.562086
 31
0.000000
  0
LINE
  8
1
 10
-9.064263
 20
16.562086
 30
0.000000
 11
-9.058283
 21
16.548302
 31
0.000000
  0
LINE
  8
1
 10
-9.058283
 20
16.548302
 30
0.000000
 11
-9.052762
 21
16.535873
 31
0.000000
  0
LINE
  8
1
 10
-9.052762
 20
16.535873
 30
0.000000
 11
-9.047727
 21
16.524801
 31
0.000000
  0
LINE
  8
1
 10
-9.047727
 20
16.524801
 30
0.000000
 11
-9.043198
 21
16.515068
 31
0.000000
  0
LINE
  8
1
 10
-9.043198
 20
16.515068
 30
0.000000
 11
-9.039200
 21
16.506668
 31
0.000000
  0
LINE
  8
1
 10
-9.039200
 20
16.506668
 30
0.000000
 11
-9.035755
 21
16.499590
 31
0.000000
  0
LINE
  8
1
 10
-9.035755
 20
16.499590
 30
0.000000
 11
-9.032887
 21
16.493822
 31
0.000000
  0
LINE
  8
1
 10
-9.032887
 20
16.493822
 30
0.000000
 11
-9.030617
 21
16.489357
 31
0.000000
  0
LINE
  8
1
 10
-9.030617
 20
16.489357
 30
0.000000
 11
-9.028968
 21
16.486183
 31
0.000000
  0
LINE
  8
1
 10
-9.028968
 20
16.486183
 30
0.000000
 11
-9.027622
 21
16.483656
 31
0.000000
  0
LINE
  8
1
 10
-9.027622
 20
16.483656
 30
0.000000
 11
-8.406120
 21
15.348848
 31
0.000000
  0
LINE
  8
1
 10
-8.406120
 20
15.348848
 30
0.000000
 11
-10.286242
 21
14.157798
 31
0.000000
  0
LINE
  8
1
 10
-10.286242
 20
14.157798
 30
0.000000
 11
-11.046749
 21
15.204546
 31
0.000000
  0
LINE
  8
1
 10
-11.046749
 20
15.204546
 30
0.000000
 11
-11.048458
 21
15.206842
 31
0.000000
  0
LINE
  8
1
 10
-11.048458
 20
15.206842
 30
0.000000
 11
-11.050625
 21
15.209689
 31
0.000000
  0
LINE
  8
1
 10
-11.050625
 20
15.209689
 30
0.000000
 11
-11.053692
 21
15.213649
 31
0.000000
  0
LINE
  8
1
 10
-11.053692
 20
15.213649
 30
0.000000
 11
-11.057680
 21
15.218706
 31
0.000000
  0
LINE
  8
1
 10
-11.057680
 20
15.218706
 30
0.000000
 11
-11.062609
 21
15.224846
 31
0.000000
  0
LINE
  8
1
 10
-11.062609
 20
15.224846
 30
0.000000
 11
-11.068495
 21
15.232048
 31
0.000000
  0
LINE
  8
1
 10
-11.068495
 20
15.232048
 30
0.000000
 11
-11.075360
 21
15.240301
 31
0.000000
  0
LINE
  8
1
 10
-11.075360
 20
15.240301
 30
0.000000
 11
-11.083220
 21
15.249584
 31
0.000000
  0
LINE
  8
1
 10
-11.083220
 20
15.249584
 30
0.000000
 11
-11.092098
 21
15.259886
 31
0.000000
  0
LINE
  8
1
 10
-11.092098
 20
15.259886
 30
0.000000
 11
-11.102006
 21
15.271182
 31
0.000000
  0
LINE
  8
1
 10
-11.102006
 20
15.271182
 30
0.000000
 11
-11.112967
 21
15.283462
 31
0.000000
  0
LINE
  8
1
 10
-11.112967
 20
15.283462
 30
0.000000
 11
-11.124997
 21
15.296703
 31
0.000000
  0
LINE
  8
1
 10
-11.124997
 20
15.296703
 30
0.000000
 11
-11.138113
 21
15.310891
 31
0.000000
  0
LINE
  8
1
 10
-11.138113
 20
15.310891
 30
0.000000
 11
-11.152333
 21
15.326006
 31
0.000000
  0
LINE
  8
1
 10
-11.152333
 20
15.326006
 30
0.000000
 11
-11.167675
 21
15.342031
 31
0.000000
  0
LINE
  8
1
 10
-11.167675
 20
15.342031
 30
0.000000
 11
-11.184155
 21
15.358946
 31
0.000000
  0
LINE
  8
1
 10
-11.184155
 20
15.358946
 30
0.000000
 11
-11.201788
 21
15.376733
 31
0.000000
  0
LINE
  8
1
 10
-11.201788
 20
15.376733
 30
0.000000
 11
-11.220592
 21
15.395372
 31
0.000000
  0
LINE
  8
1
 10
-11.220592
 20
15.395372
 30
0.000000
 11
-11.240585
 21
15.414846
 31
0.000000
  0
LINE
  8
1
 10
-11.240585
 20
15.414846
 30
0.000000
 11
-11.261780
 21
15.435135
 31
0.000000
  0
LINE
  8
1
 10
-11.261780
 20
15.435135
 30
0.000000
 11
-11.284194
 21
15.456219
 31
0.000000
  0
LINE
  8
1
 10
-11.284194
 20
15.456219
 30
0.000000
 11
-11.307841
 21
15.478077
 31
0.000000
  0
LINE
  8
1
 10
-11.307841
 20
15.478077
 30
0.000000
 11
-11.332739
 21
15.500690
 31
0.000000
  0
LINE
  8
1
 10
-11.332739
 20
15.500690
 30
0.000000
 11
-11.358899
 21
15.524037
 31
0.000000
  0
LINE
  8
1
 10
-11.358899
 20
15.524037
 30
0.000000
 11
-11.386339
 21
15.548101
 31
0.000000
  0
LINE
  8
1
 10
-11.386339
 20
15.548101
 30
0.000000
 11
-11.415073
 21
15.572859
 31
0.000000
  0
LINE
  8
1
 10
-11.415073
 20
15.572859
 30
0.000000
 11
-11.445113
 21
15.598288
 31
0.000000
  0
LINE
  8
1
 10
-11.445113
 20
15.598288
 30
0.000000
 11
-11.476476
 21
15.624370
 31
0.000000
  0
LINE
  8
1
 10
-11.476476
 20
15.624370
 30
0.000000
 11
-11.509171
 21
15.651082
 31
0.000000
  0
LINE
  8
1
 10
-11.509171
 20
15.651082
 30
0.000000
 11
-11.543217
 21
15.678405
 31
0.000000
  0
LINE
  8
1
 10
-11.543217
 20
15.678405
 30
0.000000
 11
-11.578622
 21
15.706315
 31
0.000000
  0
LINE
  8
1
 10
-11.578622
 20
15.706315
 30
0.000000
 11
-11.615401
 21
15.734792
 31
0.000000
  0
LINE
  8
1
 10
-11.615401
 20
15.734792
 30
0.000000
 11
-11.653567
 21
15.763812
 31
0.000000
  0
LINE
  8
1
 10
-11.653567
 20
15.763812
 30
0.000000
 11
-11.693131
 21
15.793355
 31
0.000000
  0
LINE
  8
1
 10
-11.693131
 20
15.793355
 30
0.000000
 11
-11.734106
 21
15.823398
 31
0.000000
  0
LINE
  8
1
 10
-11.734106
 20
15.823398
 30
0.000000
 11
-11.776504
 21
15.853918
 31
0.000000
  0
LINE
  8
1
 10
-11.776504
 20
15.853918
 30
0.000000
 11
-11.820334
 21
15.884893
 31
0.000000
  0
LINE
  8
1
 10
-11.820334
 20
15.884893
 30
0.000000
 11
-11.865610
 21
15.916301
 31
0.000000
  0
LINE
  8
1
 10
-11.865610
 20
15.916301
 30
0.000000
 11
-11.912340
 21
15.948117
 31
0.000000
  0
LINE
  8
1
 10
-11.912340
 20
15.948117
 30
0.000000
 11
-11.960537
 21
15.980320
 31
0.000000
  0
LINE
  8
1
 10
-11.960537
 20
15.980320
 30
0.000000
 11
-12.010209
 21
16.012884
 31
0.000000
  0
LINE
  8
1
 10
-12.010209
 20
16.012884
 30
0.000000
 11
-12.061369
 21
16.045792
 31
0.000000
  0
LINE
  8
1
 10
-12.061369
 20
16.045792
 30
0.000000
 11
-12.114022
 21
16.079012
 31
0.000000
  0
LINE
  8
1
 10
-12.114022
 20
16.079012
 30
0.000000
 11
-12.168181
 21
16.112524
 31
0.000000
  0
LINE
  8
1
 10
-12.168181
 20
16.112524
 30
0.000000
 11
-12.223855
 21
16.146307
 31
0.000000
  0
LINE
  8
1
 10
-12.223855
 20
16.146307
 30
0.000000
 11
-12.281052
 21
16.180334
 31
0.000000
  0
LINE
  8
1
 10
-12.281052
 20
16.180334
 30
0.000000
 11
-12.339778
 21
16.214582
 31
0.000000
  0
LINE
  8
1
 10
-12.339778
 20
16.214582
 30
0.000000
 11
-12.400044
 21
16.249025
 31
0.000000
  0
LINE
  8
1
 10
-12.400044
 20
16.249025
 30
0.000000
 11
-12.461857
 21
16.283642
 31
0.000000
  0
LINE
  8
1
 10
-12.461857
 20
16.283642
 30
0.000000
 11
-12.525225
 21
16.318405
 31
0.000000
  0
LINE
  8
1
 10
-12.525225
 20
16.318405
 30
0.000000
 11
-12.590155
 21
16.353291
 31
0.000000
  0
LINE
  8
1
 10
-12.590155
 20
16.353291
 30
0.000000
 11
-12.656652
 21
16.388277
 31
0.000000
  0
LINE
  8
1
 10
-12.656652
 20
16.388277
 30
0.000000
 11
-12.724726
 21
16.423334
 31
0.000000
  0
LINE
  8
1
 10
-12.724726
 20
16.423334
 30
0.000000
 11
-12.794380
 21
16.458443
 31
0.000000
  0
LINE
  8
1
 10
-12.794380
 20
16.458443
 30
0.000000
 11
-12.865623
 21
16.493574
 31
0.000000
  0
LINE
  8
1
 10
-12.865623
 20
16.493574
 30
0.000000
 11
-12.938457
 21
16.528706
 31
0.000000
  0
LINE
  8
1
 10
-12.938457
 20
16.528706
 30
0.000000
 11
-13.012890
 21
16.563808
 31
0.000000
  0
LINE
  8
1
 10
-13.012890
 20
16.563808
 30
0.000000
 11
-13.088926
 21
16.598860
 31
0.000000
  0
LINE
  8
1
 10
-13.088926
 20
16.598860
 30
0.000000
 11
-13.166572
 21
16.633837
 31
0.000000
  0
LINE
  8
1
 10
-13.166572
 20
16.633837
 30
0.000000
 11
-13.245829
 21
16.668709
 31
0.000000
  0
LINE
  8
1
 10
-13.245829
 20
16.668709
 30
0.000000
 11
-13.326700
 21
16.703453
 31
0.000000
  0
LINE
  8
1
 10
-13.326700
 20
16.703453
 30
0.000000
 11
-13.409194
 21
16.738045
 31
0.000000
  0
LINE
  8
1
 10
-13.409194
 20
16.738045
 30
0.000000
 11
-13.493310
 21
16.772455
 31
0.000000
  0
LINE
  8
1
 10
-13.493310
 20
16.772455
 30
0.000000
 11
-13.579052
 21
16.806662
 31
0.000000
  0
LINE
  8
1
 10
-13.579052
 20
16.806662
 30
0.000000
 11
-13.666425
 21
16.840639
 31
0.000000
  0
LINE
  8
1
 10
-13.666425
 20
16.840639
 30
0.000000
 11
-13.755428
 21
16.874357
 31
0.000000
  0
LINE
  8
1
 10
-13.755428
 20
16.874357
 30
0.000000
 11
-13.846065
 21
16.907795
 31
0.000000
  0
LINE
  8
1
 10
-13.846065
 20
16.907795
 30
0.000000
 11
-13.938337
 21
16.940922
 31
0.000000
  0
LINE
  8
1
 10
-13.938337
 20
16.940922
 30
0.000000
 11
-14.006904
 21
16.964867
 31
0.000000
  0
LINE
  8
1
 10
-14.006904
 20
16.964867
 30
0.000000
 11
-15.049885
 21
16.046837
 31
0.000000
  0
LINE
  8
1
 10
-15.049885
 20
16.046837
 30
0.000000
 11
-15.034837
 21
15.975787
 31
0.000000
  0
LINE
  8
1
 10
-15.034837
 20
15.975787
 30
0.000000
 11
-15.013688
 21
15.880056
 31
0.000000
  0
LINE
  8
1
 10
-15.013688
 20
15.880056
 30
0.000000
 11
-14.992025
 21
15.785909
 31
0.000000
  0
LINE
  8
1
 10
-14.992025
 20
15.785909
 30
0.000000
 11
-14.969876
 21
15.693345
 31
0.000000
  0
LINE
  8
1
 10
-14.969876
 20
15.693345
 30
0.000000
 11
-14.947264
 21
15.602367
 31
0.000000
  0
LINE
  8
1
 10
-14.947264
 20
15.602367
 30
0.000000
 11
-14.924216
 21
15.512977
 31
0.000000
  0
LINE
  8
1
 10
-14.924216
 20
15.512977
 30
0.000000
 11
-14.900759
 21
15.425173
 31
0.000000
  0
LINE
  8
1
 10
-14.900759
 20
15.425173
 30
0.000000
 11
-14.876918
 21
15.338957
 31
0.000000
  0
LINE
  8
1
 10
-14.876918
 20
15.338957
 30
0.000000
 11
-14.852719
 21
15.254329
 31
0.000000
  0
LINE
  8
1
 10
-14.852719
 20
15.254329
 30
0.000000
 11
-14.828188
 21
15.171287
 31
0.000000
  0
LINE
  8
1
 10
-14.828188
 20
15.171287
 30
0.000000
 11
-14.803350
 21
15.089830
 31
0.000000
  0
LINE
  8
1
 10
-14.803350
 20
15.089830
 30
0.000000
 11
-14.778232
 21
15.009960
 31
0.000000
  0
LINE
  8
1
 10
-14.778232
 20
15.009960
 30
0.000000
 11
-14.752860
 21
14.931674
 31
0.000000
  0
LINE
  8
1
 10
-14.752860
 20
14.931674
 30
0.000000
 11
-14.727259
 21
14.854970
 31
0.000000
  0
LINE
  8
1
 10
-14.727259
 20
14.854970
 30
0.000000
 11
-14.701453
 21
14.779844
 31
0.000000
  0
LINE
  8
1
 10
-14.701453
 20
14.779844
 30
0.000000
 11
-14.675469
 21
14.706297
 31
0.000000
  0
LINE
  8
1
 10
-14.675469
 20
14.706297
 30
0.000000
 11
-14.649335
 21
14.634325
 31
0.000000
  0
LINE
  8
1
 10
-14.649335
 20
14.634325
 30
0.000000
 11
-14.623073
 21
14.563925
 31
0.000000
  0
LINE
  8
1
 10
-14.623073
 20
14.563925
 30
0.000000
 11
-14.596708
 21
14.495091
 31
0.000000
  0
LINE
  8
1
 10
-14.596708
 20
14.495091
 30
0.000000
 11
-14.570269
 21
14.427824
 31
0.000000
  0
LINE
  8
1
 10
-14.570269
 20
14.427824
 30
0.000000
 11
-14.543779
 21
14.362119
 31
0.000000
  0
LINE
  8
1
 10
-14.543779
 20
14.362119
 30
0.000000
 11
-14.517262
 21
14.297968
 31
0.000000
  0
LINE
  8
1
 10
-14.517262
 20
14.297968
 30
0.000000
 11
-14.490746
 21
14.235369
 31
0.000000
  0
LINE
  8
1
 10
-14.490746
 20
14.235369
 30
0.000000
 11
-14.464253
 21
14.174316
 31
0.000000
  0
LINE
  8
1
 10
-14.464253
 20
14.174316
 30
0.000000
 11
-14.437810
 21
14.114805
 31
0.000000
  0
LINE
  8
1
 10
-14.437810
 20
14.114805
 30
0.000000
 11
-14.411442
 21
14.056830
 31
0.000000
  0
LINE
  8
1
 10
-14.411442
 20
14.056830
 30
0.000000
 11
-14.385173
 21
14.000386
 31
0.000000
  0
LINE
  8
1
 10
-14.385173
 20
14.000386
 30
0.000000
 11
-14.359027
 21
13.945464
 31
0.000000
  0
LINE
  8
1
 10
-14.359027
 20
13.945464
 30
0.000000
 11
-14.333030
 21
13.892061
 31
0.000000
  0
LINE
  8
1
 10
-14.333030
 20
13.892061
 30
0.000000
 11
-14.307204
 21
13.840166
 31
0.000000
  0
LINE
  8
1
 10
-14.307204
 20
13.840166
 30
0.000000
 11
-14.281576
 21
13.789776
 31
0.000000
  0
LINE
  8
1
 10
-14.281576
 20
13.789776
 30
0.000000
 11
-14.256169
 21
13.740880
 31
0.000000
  0
LINE
  8
1
 10
-14.256169
 20
13.740880
 30
0.000000
 11
-14.231008
 21
13.693472
 31
0.000000
  0
LINE
  8
1
 10
-14.231008
 20
13.693472
 30
0.000000
 11
-14.206115
 21
13.647544
 31
0.000000
  0
LINE
  8
1
 10
-14.206115
 20
13.647544
 30
0.000000
 11
-14.181516
 21
13.603087
 31
0.000000
  0
LINE
  8
1
 10
-14.181516
 20
13.603087
 30
0.000000
 11
-14.157234
 21
13.560094
 31
0.000000
  0
LINE
  8
1
 10
-14.157234
 20
13.560094
 30
0.000000
 11
-14.133292
 21
13.518554
 31
0.000000
  0
LINE
  8
1
 10
-14.133292
 20
13.518554
 30
0.000000
 11
-14.109714
 21
13.478456
 31
0.000000
  0
LINE
  8
1
 10
-14.109714
 20
13.478456
 30
0.000000
 11
-14.086523
 21
13.439795
 31
0.000000
  0
LINE
  8
1
 10
-14.086523
 20
13.439795
 30
0.000000
 11
-14.063742
 21
13.402557
 31
0.000000
  0
LINE
  8
1
 10
-14.063742
 20
13.402557
 30
0.000000
 11
-14.041396
 21
13.366735
 31
0.000000
  0
LINE
  8
1
 10
-14.041396
 20
13.366735
 30
0.000000
 11
-14.019505
 21
13.332316
 31
0.000000
  0
LINE
  8
1
 10
-14.019505
 20
13.332316
 30
0.000000
 11
-13.998095
 21
13.299293
 31
0.000000
  0
LINE
  8
1
 10
-13.998095
 20
13.299293
 30
0.000000
 11
-13.977184
 21
13.267649
 31
0.000000
  0
LINE
  8
1
 10
-13.977184
 20
13.267649
 30
0.000000
 11
-13.956799
 21
13.237376
 31
0.000000
  0
LINE
  8
1
 10
-13.956799
 20
13.237376
 30
0.000000
 11
-13.936959
 21
13.208464
 31
0.000000
  0
LINE
  8
1
 10
-13.936959
 20
13.208464
 30
0.000000
 11
-13.917689
 21
13.180898
 31
0.000000
  0
LINE
  8
1
 10
-13.917689
 20
13.180898
 30
0.000000
 11
-13.899009
 21
13.154667
 31
0.000000
  0
LINE
  8
1
 10
-13.899009
 20
13.154667
 30
0.000000
 11
-13.880940
 21
13.129759
 31
0.000000
  0
LINE
  8
1
 10
-13.880940
 20
13.129759
 30
0.000000
 11
-13.863506
 21
13.106160
 31
0.000000
  0
LINE
  8
1
 10
-13.863506
 20
13.106160
 30
0.000000
 11
-13.846727
 21
13.083858
 31
0.000000
  0
LINE
  8
1
 10
-13.846727
 20
13.083858
 30
0.000000
 11
-13.830626
 21
13.062840
 31
0.000000
  0
LINE
  8
1
 10
-13.830626
 20
13.062840
 30
0.000000
 11
-13.815220
 21
13.043091
 31
0.000000
  0
LINE
  8
1
 10
-13.815220
 20
13.043091
 30
0.000000
 11
-13.800533
 21
13.024597
 31
0.000000
  0
LINE
  8
1
 10
-13.800533
 20
13.024597
 30
0.000000
 11
-13.786586
 21
13.007346
 31
0.000000
  0
LINE
  8
1
 10
-13.786586
 20
13.007346
 30
0.000000
 11
-13.773398
 21
12.991323
 31
0.000000
  0
LINE
  8
1
 10
-13.773398
 20
12.991323
 30
0.000000
 11
-13.760990
 21
12.976512
 31
0.000000
  0
LINE
  8
1
 10
-13.760990
 20
12.976512
 30
0.000000
 11
-13.749381
 21
12.962898
 31
0.000000
  0
LINE
  8
1
 10
-13.749381
 20
12.962898
 30
0.000000
 11
-13.738593
 21
12.950468
 31
0.000000
  0
LINE
  8
1
 10
-13.738593
 20
12.950468
 30
0.000000
 11
-13.728645
 21
12.939206
 31
0.000000
  0
LINE
  8
1
 10
-13.728645
 20
12.939206
 30
0.000000
 11
-13.719554
 21
12.929092
 31
0.000000
  0
LINE
  8
1
 10
-13.719554
 20
12.929092
 30
0.000000
 11
-13.711344
 21
12.920117
 31
0.000000
  0
LINE
  8
1
 10
-13.711344
 20
12.920117
 30
0.000000
 11
-13.704029
 21
12.912261
 31
0.000000
  0
LINE
  8
1
 10
-13.704029
 20
12.912261
 30
0.000000
 11
-13.697632
 21
12.905508
 31
0.000000
  0
LINE
  8
1
 10
-13.697632
 20
12.905508
 30
0.000000
 11
-13.692167
 21
12.899839
 31
0.000000
  0
LINE
  8
1
 10
-13.692167
 20
12.899839
 30
0.000000
 11
-13.687657
 21
12.895242
 31
0.000000
  0
LINE
  8
1
 10
-13.687657
 20
12.895242
 30
0.000000
 11
-13.684118
 21
12.891697
 31
0.000000
  0
LINE
  8
1
 10
-13.684118
 20
12.891697
 30
0.000000
 11
-13.681570
 21
12.889187
 31
0.000000
  0
LINE
  8
1
 10
-13.681570
 20
12.889187
 30
0.000000
 11
-13.679509
 21
12.887199
 31
0.000000
  0
LINE
  8
1
 10
-13.679509
 20
12.887199
 30
0.000000
 11
-12.737751
 21
11.999988
 31
0.000000
  0
LINE
  8
1
 10
-12.737751
 20
11.999988
 30
0.000000
 11
-14.157798
 21
10.286242
 31
0.000000
  0
LINE
  8
1
 10
-14.157798
 20
10.286242
 30
0.000000
 11
-15.204546
 21
11.046749
 31
0.000000
  0
LINE
  8
1
 10
-15.204546
 20
11.046749
 30
0.000000
 11
-15.206882
 21
11.048405
 31
0.000000
  0
LINE
  8
1
 10
-15.206882
 20
11.048405
 30
0.000000
 11
-15.209821
 21
11.050443
 31
0.000000
  0
LINE
  8
1
 10
-15.209821
 20
11.050443
 30
0.000000
 11
-15.213963
 21
11.053261
 31
0.000000
  0
LINE
  8
1
 10
-15.213963
 20
11.053261
 30
0.000000
 11
-15.219317
 21
11.056838
 31
0.000000
  0
LINE
  8
1
 10
-15.219317
 20
11.056838
 30
0.000000
 11
-15.225903
 21
11.061154
 31
0.000000
  0
LINE
  8
1
 10
-15.225903
 20
11.061154
 30
0.000000
 11
-15.233727
 21
11.066185
 31
0.000000
  0
LINE
  8
1
 10
-15.233727
 20
11.066185
 30
0.000000
 11
-15.242805
 21
11.071913
 31
0.000000
  0
LINE
  8
1
 10
-15.242805
 20
11.071913
 30
0.000000
 11
-15.253150
 21
11.078313
 31
0.000000
  0
LINE
  8
1
 10
-15.253150
 20
11.078313
 30
0.000000
 11
-15.264776
 21
11.085366
 31
0.000000
  0
LINE
  8
1
 10
-15.264776
 20
11.085366
 30
0.000000
 11
-15.277691
 21
11.093048
 31
0.000000
  0
LINE
  8
1
 10
-15.277691
 20
11.093048
 30
0.000000
 11
-15.291909
 21
11.101339
 31
0.000000
  0
LINE
  8
1
 10
-15.291909
 20
11.101339
 30
0.000000
 11
-15.307443
 21
11.110216
 31
0.000000
  0
LINE
  8
1
 10
-15.307443
 20
11.110216
 30
0.000000
 11
-15.324301
 21
11.119657
 31
0.000000
  0
LINE
  8
1
 10
-15.324301
 20
11.119657
 30
0.000000
 11
-15.342496
 21
11.129637
 31
0.000000
  0
LINE
  8
1
 10
-15.342496
 20
11.129637
 30
0.000000
 11
-15.362039
 21
11.140137
 31
0.000000
  0
LINE
  8
1
 10
-15.362039
 20
11.140137
 30
0.000000
 11
-15.382938
 21
11.151132
 31
0.000000
  0
LINE
  8
1
 10
-15.382938
 20
11.151132
 30
0.000000
 11
-15.405206
 21
11.162599
 31
0.000000
  0
LINE
  8
1
 10
-15.405206
 20
11.162599
 30
0.000000
 11
-15.428850
 21
11.174515
 31
0.000000
  0
LINE
  8
1
 10
-15.428850
 20
11.174515
 30
0.000000
 11
-15.453881
 21
11.186858
 31
0.000000
  0
LINE
  8
1
 10
-15.453881
 20
11.186858
 30
0.000000
 11
-15.480309
 21
11.199604
 31
0.000000
  0
LINE
  8
1
 10
-15.480309
 20
11.199604
 30
0.000000
 11
-15.508141
 21
11.212729
 31
0.000000
  0
LINE
  8
1
 10
-15.508141
 20
11.212729
 30
0.000000
 11
-15.537385
 21
11.226211
 31
0.000000
  0
LINE
  8
1
 10
-15.537385
 20
11.226211
 30
0.000000
 11
-15.568051
 21
11.240023
 31
0.000000
  0
LINE
  8
1
 10
-15.568051
 20
11.240023
 30
0.000000
 11
-15.600146
 21
11.254144
 31
0.000000
  0
LINE
  8
1
 10
-15.600146
 20
11.254144
 30
0.000000
 11
-15.633680
 21
11.268550
 31
0.000000
  0
LINE
  8
1
 10
-15.633680
 20
11.268550
 30
0.000000
 11
-15.668658
 21
11.283216
 31
0.000000
  0
LINE
  8
1
 10
-15.668658
 20
11.283216
 30
0.000000
 11
-15.705086
 21
11.298118
 31
0.000000
  0
LINE
  8
1
 10
-15.705086
 20
11.298118
 30
0.000000
 11
-15.742972
 21
11.313232
 31
0.000000
  0
LINE
  8
1
 10
-15.742972
 20
11.313232
 30
0.000000
 11
-15.782323
 21
11.328533
 31
0.000000
  0
LINE
  8
1
 10
-15.782323
 20
11.328533
 30
0.000000
 11
-15.823145
 21
11.343999
 31
0.000000
  0
LINE
  8
1
 10
-15.823145
 20
11.343999
 30
0.000000
 11
-15.865442
 21
11.359602
 31
0.000000
  0
LINE
  8
1
 10
-15.865442
 20
11.359602
 30
0.000000
 11
-15.909222
 21
11.375319
 31
0.000000
  0
LINE
  8
1
 10
-15.909222
 20
11.375319
 30
0.000000
 11
-15.954488
 21
11.391126
 31
0.000000
  0
LINE
  8
1
 10
-15.954488
 20
11.391126
 30
0.000000
 11
-16.001244
 21
11.406996
 31
0.000000
  0
LINE
  8
1
 10
-16.001244
 20
11.406996
 30
0.000000
 11
-16.049498
 21
11.422907
 31
0.000000
  0
LINE
  8
1
 10
-16.049498
 20
11.422907
 30
0.000000
 11
-16.099251
 21
11.438831
 31
0.000000
  0
LINE
  8
1
 10
-16.099251
 20
11.438831
 30
0.000000
 11
-16.150509
 21
11.454747
 31
0.000000
  0
LINE
  8
1
 10
-16.150509
 20
11.454747
 30
0.000000
 11
-16.203274
 21
11.470626
 31
0.000000
  0
LINE
  8
1
 10
-16.203274
 20
11.470626
 30
0.000000
 11
-16.257549
 21
11.486444
 31
0.000000
  0
LINE
  8
1
 10
-16.257549
 20
11.486444
 30
0.000000
 11
-16.313337
 21
11.502178
 31
0.000000
  0
LINE
  8
1
 10
-16.313337
 20
11.502178
 30
0.000000
 11
-16.370642
 21
11.517799
 31
0.000000
  0
LINE
  8
1
 10
-16.370642
 20
11.517799
 30
0.000000
 11
-16.429466
 21
11.533286
 31
0.000000
  0
LINE
  8
1
 10
-16.429466
 20
11.533286
 30
0.000000
 11
-16.489809
 21
11.548610
 31
0.000000
  0
LINE
  8
1
 10
-16.489809
 20
11.548610
 30
0.000000
 11
-16.551672
 21
11.563746
 31
0.000000
  0
LINE
  8
1
 10
-16.551672
 20
11.563746
 30
0.000000
 11
-16.615061
 21
11.578671
 31
0.000000
  0
LINE
  8
1
 10
-16.615061
 20
11.578671
 30
0.000000
 11
-16.679972
 21
11.593359
 31
0.000000
  0
LINE
  8
1
 10
-16.679972
 20
11.593359
 30
0.000000
 11
-16.746408
 21
11.607782
 31
0.000000
  0
LINE
  8
1
 10
-16.746408
 20
11.607782
 30
0.000000
 11
-16.814369
 21
11.621917
 31
0.000000
  0
LINE
  8
1
 10
-16.814369
 20
11.621917
 30
0.000000
 11
-16.883852
 21
11.635736
 31
0.000000
  0
LINE
  8
1
 10
-16.883852
 20
11.635736
 30
0.000000
 11
-16.954861
 21
11.649217
 31
0.000000
  0
LINE
  8
1
 10
-16.954861
 20
11.649217
 30
0.000000
 11
-17.027393
 21
11.662333
 31
0.000000
  0
LINE
  8
1
 10
-17.027393
 20
11.662333
 30
0.000000
 11
-17.101448
 21
11.675056
 31
0.000000
  0
LINE
  8
1
 10
-17.101448
 20
11.675056
 30
0.000000
 11
-17.177023
 21
11.687363
 31
0.000000
  0
LINE
  8
1
 10
-17.177023
 20
11.687363
 30
0.000000
 11
-17.254118
 21
11.699228
 31
0.000000
  0
LINE
  8
1
 10
-17.254118
 20
11.699228
 30
0.000000
 11
-17.332729
 21
11.710626
 31
0.000000
  0
LINE
  8
1
 10
-17.332729
 20
11.710626
 30
0.000000
 11
-17.412855
 21
11.721529
 31
0.000000
  0
LINE
  8
1
 10
-17.412855
 20
11.721529
 30
0.000000
 11
-17.494492
 21
11.731913
 31
0.000000
  0
LINE
  8
1
 10
-17.494492
 20
11.731913
 30
0.000000
 11
-17.577639
 21
11.741754
 31
0.000000
  0
LINE
  8
1
 10
-17.577639
 20
11.741754
 30
0.000000
 11
-17.662292
 21
11.751023
 31
0.000000
  0
LINE
  8
1
 10
-17.662292
 20
11.751023
 30
0.000000
 11
-17.748446
 21
11.759698
 31
0.000000
  0
LINE
  8
1
 10
-17.748446
 20
11.759698
 30
0.000000
 11
-17.836096
 21
11.767750
 31
0.000000
  0
LINE
  8
1
 10
-17.836096
 20
11.767750
 30
0.000000
 11
-17.925241
 21
11.775157
 31
0.000000
  0
LINE
  8
1
 10
-17.925241
 20
11.775157
 30
0.000000
 11
-18.015875
 21
11.781891
 31
0.000000
  0
LINE
  8
1
 10
-18.015875
 20
11.781891
 30
0.000000
 11
-18.107990
 21
11.787927
 31
0.000000
  0
LINE
  8
1
 10
-18.107990
 20
11.787927
 30
0.000000
 11
-18.201586
 21
11.793242
 31
0.000000
  0
LINE
  8
1
 10
-18.201586
 20
11.793242
 30
0.000000
 11
-18.296652
 21
11.797806
 31
0.000000
  0
LINE
  8
1
 10
-18.296652
 20
11.797806
 30
0.000000
 11
-18.393187
 21
11.801598
 31
0.000000
  0
LINE
  8
1
 10
-18.393187
 20
11.801598
 30
0.000000
 11
-18.491180
 21
11.804591
 31
0.000000
  0
LINE
  8
1
 10
-18.491180
 20
11.804591
 30
0.000000
 11
-18.563789
 21
11.806175
 31
0.000000
  0
LINE
  8
1
 10
-18.563789
 20
11.806175
 30
0.000000
 11
-19.272036
 21
10.610780
 31
0.000000
  0
LINE
  8
1
 10
-19.272036
 20
10.610780
 30
0.000000
 11
-19.235769
 21
10.547856
 31
0.000000
  0
LINE
  8
1
 10
-19.235769
 20
10.547856
 30
0.000000
 11
-19.186073
 21
10.463346
 31
0.000000
  0
LINE
  8
1
 10
-19.186073
 20
10.463346
 30
0.000000
 11
-19.136377
 21
10.380501
 31
0.000000
  0
LINE
  8
1
 10
-19.136377
 20
10.380501
 30
0.000000
 11
-19.086708
 21
10.299313
 31
0.000000
  0
LINE
  8
1
 10
-19.086708
 20
10.299313
 30
0.000000
 11
-19.037088
 21
10.219775
 31
0.000000
  0
LINE
  8
1
 10
-19.037088
 20
10.219775
 30
0.000000
 11
-18.987547
 21
10.141881
 31
0.000000
  0
LINE
  8
1
 10
-18.987547
 20
10.141881
 30
0.000000
 11
-18.938105
 21
10.065624
 31
0.000000
  0
LINE
  8
1
 10
-18.938105
 20
10.065624
 30
0.000000
 11
-18.888788
 21
9.990994
 31
0.000000
  0
LINE
  8
1
 10
-18.888788
 20
9.990994
 30
0.000000
 11
-18.839622
 21
9.917986
 31
0.000000
  0
LINE
  8
1
 10
-18.839622
 20
9.917986
 30
0.000000
 11
-18.790630
 21
9.846589
 31
0.000000
  0
LINE
  8
1
 10
-18.790630
 20
9.846589
 30
0.000000
 11
-18.741837
 21
9.776795
 31
0.000000
  0
LINE
  8
1
 10
-18.741837
 20
9.776795
 30
0.000000
 11
-18.693266
 21
9.708596
 31
0.000000
  0
LINE
  8
1
 10
-18.693266
 20
9.708596
 30
0.000000
 11
-18.644945
 21
9.641982
 31
0.000000
  0
LINE
  8
1
 10
-18.644945
 20
9.641982
 30
0.000000
 11
-18.596893
 21
9.576942
 31
0.000000
  0
LINE
  8
1
 10
-18.596893
 20
9.576942
 30
0.000000
 11
-18.549135
 21
9.513469
 31
0.000000
  0
LINE
  8
1
 10
-18.549135
 20
9.513469
 30
0.000000
 11
-18.501696
 21
9.451550
 31
0.000000
  0
LINE
  8
1
 10
-18.501696
 20
9.451550
 30
0.000000
 11
-18.454599
 21
9.391177
 31
0.000000
  0
LINE
  8
1
 10
-18.454599
 20
9.391177
 30
0.000000
 11
-18.407867
 21
9.332337
 31
0.000000
  0
LINE
  8
1
 10
-18.407867
 20
9.332337
 30
0.000000
 11
-18.361525
 21
9.275021
 31
0.000000
  0
LINE
  8
1
 10
-18.361525
 20
9.275021
 30
0.000000
 11
-18.315592
 21
9.219216
 31
0.000000
  0
LINE
  8
1
 10
-18.315592
 20
9.219216
 30
0.000000
 11
-18.270094
 21
9.164911
 31
0.000000
  0
LINE
  8
1
 10
-18.270094
 20
9.164911
 30
0.000000
 11
-18.225052
 21
9.112095
 31
0.000000
  0
LINE
  8
1
 10
-18.225052
 20
9.112095
 30
0.000000
 11
-18.180489
 21
9.060754
 31
0.000000
  0
LINE
  8
1
 10
-18.180489
 20
9.060754
 30
0.000000
 11
-18.136427
 21
9.010876
 31
0.000000
  0
LINE
  8
1
 10
-18.136427
 20
9.010876
 30
0.000000
 11
-18.092888
 21
8.962449
 31
0.000000
  0
LINE
  8
1
 10
-18.092888
 20
8.962449
 30
0.000000
 11
-18.049894
 21
8.915461
 31
0.000000
  0
LINE
  8
1
 10
-18.049894
 20
8.915461
 30
0.000000
 11
-18.007469
 21
8.869896
 31
0.000000
  0
LINE
  8
1
 10
-18.007469
 20
8.869896
 30
0.000000
 11
-17.965631
 21
8.825742
 31
0.000000
  0
LINE
  8
1
 10
-17.965631
 20
8.825742
 30
0.000000
 11
-17.924404
 21
8.782986
 31
0.000000
  0
LINE
  8
1
 10
-17.924404
 20
8.782986
 30
0.000000
 11
-17.883806
 21
8.741611
 31
0.000000
  0
LINE
  8
1
 10
-17.883806
 20
8.741611
 30
0.000000
 11
-17.843861
 21
8.701607
 31
0.000000
  0
LINE
  8
1
 10
-17.843861
 20
8.701607
 30
0.000000
 11
-17.804588
 21
8.662955
 31
0.000000
  0
LINE
  8
1
 10
-17.804588
 20
8.662955
 30
0.000000
 11
-17.766008
 21
8.625643
 31
0.000000
  0
LINE
  8
1
 10
-17.766008
 20
8.625643
 30
0.000000
 11
-17.728142
 21
8.589655
 31
0.000000
  0
LINE
  8
1
 10
-17.728142
 20
8.589655
 30
0.000000
 11
-17.691008
 21
8.554976
 31
0.000000
  0
LINE
  8
1
 10
-17.691008
 20
8.554976
 30
0.000000
 11
-17.654629
 21
8.521590
 31
0.000000
  0
LINE
  8
1
 10
-17.654629
 20
8.521590
 30
0.000000
 11
-17.619022
 21
8.489481
 31
0.000000
  0
LINE
  8
1
 10
-17.619022
 20
8.489481
 30
0.000000
 11
-17.584208
 21
8.458633
 31
0.000000
  0
LINE
  8
1
 10
-17.584208
 20
8.458633
 30
0.000000
 11
-17.550205
 21
8.429030
 31
0.000000
  0
LINE
  8
1
 10
-17.550205
 20
8.429030
 30
0.000000
 11
-17.517031
 21
8.400655
 31
0.000000
  0
LINE
  8
1
 10
-17.517031
 20
8.400655
 30
0.000000
 11
-17.484709
 21
8.373491
 31
0.000000
  0
LINE
  8
1
 10
-17.484709
 20
8.373491
 30
0.000000
 11
-17.453253
 21
8.347522
 31
0.000000
  0
LINE
  8
1
 10
-17.453253
 20
8.347522
 30
0.000000
 11
-17.422686
 21
8.322730
 31
0.000000
  0
LINE
  8
1
 10
-17.422686
 20
8.322730
 30
0.000000
 11
-17.393021
 21
8.299097
 31
0.000000
  0
LINE
  8
1
 10
-17.393021
 20
8.299097
 30
0.000000
 11
-17.364277
 21
8.276606
 31
0.000000
  0
LINE
  8
1
 10
-17.364277
 20
8.276606
 30
0.000000
 11
-17.336475
 21
8.255239
 31
0.000000
  0
LINE
  8
1
 10
-17.336475
 20
8.255239
 30
0.000000
 11
-17.309629
 21
8.234977
 31
0.000000
  0
LINE
  8
1
 10
-17.309629
 20
8.234977
 30
0.000000
 11
-17.283758
 21
8.215802
 31
0.000000
  0
LINE
  8
1
 10
-17.283758
 20
8.215802
 30
0.000000
 11
-17.258877
 21
8.197696
 31
0.000000
  0
LINE
  8
1
 10
-17.258877
 20
8.197696
 30
0.000000
 11
-17.235004
 21
8.180640
 31
0.000000
  0
LINE
  8
1
 10
-17.235004
 20
8.180640
 30
0.000000
 11
-17.212154
 21
8.164615
 31
0.000000
  0
LINE
  8
1
 10
-17.212154
 20
8.164615
 30
0.000000
 11
-17.190346
 21
8.149601
 31
0.000000
  0
LINE
  8
1
 10
-17.190346
 20
8.149601
 30
0.000000
 11
-17.169592
 21
8.135578
 31
0.000000
  0
LINE
  8
1
 10
-17.169592
 20
8.135578
 30
0.000000
 11
-17.149910
 21
8.122529
 31
0.000000
  0
LINE
  8
1
 10
-17.149910
 20
8.122529
 30
0.000000
 11
-17.131313
 21
8.110432
 31
0.000000
  0
LINE
  8
1
 10
-17.131313
 20
8.110432
 30
0.000000
 11
-17.113819
 21
8.099268
 31
0.000000
  0
LINE
  8
1
 10
-17.113819
 20
8.099268
 30
0.000000
 11
-17.097441
 21
8.089017
 31
0.000000
  0
LINE
  8
1
 10
-17.097441
 20
8.089017
 30
0.000000
 11
-17.082195
 21
8.079657
 31
0.000000
  0
LINE
  8
1
 10
-17.082195
 20
8.079657
 30
0.000000
 11
-17.068092
 21
8.071168
 31
0.000000
  0
LINE
  8
1
 10
-17.068092
 20
8.071168
 30
0.000000
 11
-17.055151
 21
8.063532
 31
0.000000
  0
LINE
  8
1
 10
-17.055151
 20
8.063532
 30
0.000000
 11
-17.043381
 21
8.056723
 31
0.000000
  0
LINE
  8
1
 10
-17.043381
 20
8.056723
 30
0.000000
 11
-17.032799
 21
8.050724
 31
0.000000
  0
LINE
  8
1
 10
-17.032799
 20
8.050724
 30
0.000000
 11
-17.023415
 21
8.045512
 31
0.000000
  0
LINE
  8
1
 10
-17.023415
 20
8.045512
 30
0.000000
 11
-17.015244
 21
8.041067
 31
0.000000
  0
LINE
  8
1
 10
-17.015244
 20
8.041067
 30
0.000000
 11
-17.008295
 21
8.037365
 31
0.000000
  0
LINE
  8
1
 10
-17.008295
 20
8.037365
 30
0.000000
 11
-17.002584
 21
8.034386
 31
0.000000
  0
LINE
  8
1
 10
-17.002584
 20
8.034386
 30
0.000000
 11
-16.998123
 21
8.032107
 31
0.000000
  0
LINE
  8
1
 10
-16.998123
 20
8.032107
 30
0.000000
 11
-16.994923
 21
8.030508
 31
0.000000
  0
LINE
  8
1
 10
-16.994923
 20
8.030508
 30
0.000000
 11
-16.992350
 21
8.029255
 31
0.000000
  0
LINE
  8
1
 10
-16.992350
 20
8.029255
 30
0.000000
 11
-15.822521
 21
7.476485
 31
0.000000
  0
LINE
  8
1
 10
-15.822521
 20
7.476485
 30
0.000000
 11
-16.643490
 21
5.407797
 31
0.000000
  0
LINE
  8
1
 10
-16.643490
 20
5.407797
 30
0.000000
 11
-17.874016
 21
5.807620
 31
0.000000
  0
LINE
  8
1
 10
-17.874016
 20
5.807620
 30
0.000000
 11
-17.876749
 21
5.808473
 31
0.000000
  0
LINE
  8
1
 10
-17.876749
 20
5.808473
 30
0.000000
 11
-17.880175
 21
5.809503
 31
0.000000
  0
LINE
  8
1
 10
-17.880175
 20
5.809503
 30
0.000000
 11
-17.884983
 21
5.810904
 31
0.000000
  0
LINE
  8
1
 10
-17.884983
 20
5.810904
 30
0.000000
 11
-17.891182
 21
5.812651
 31
0.000000
  0
LINE
  8
1
 10
-17.891182
 20
5.812651
 30
0.000000
 11
-17.898779
 21
5.814721
 31
0.000000
  0
LINE
  8
1
 10
-17.898779
 20
5.814721
 30
0.000000
 11
-17.907774
 21
5.817088
 31
0.000000
  0
LINE
  8
1
 10
-17.907774
 20
5.817088
 30
0.000000
 11
-17.918179
 21
5.819729
 31
0.000000
  0
LINE
  8
1
 10
-17.918179
 20
5.819729
 30
0.000000
 11
-17.929995
 21
5.822619
 31
0.000000
  0
LINE
  8
1
 10
-17.929995
 20
5.822619
 30
0.000000
 11
-17.943232
 21
5.825735
 31
0.000000
  0
LINE
  8
1
 10
-17.943232
 20
5.825735
 30
0.000000
 11
-17.957888
 21
5.829051
 31
0.000000
  0
LINE
  8
1
 10
-17.957888
 20
5.829051
 30
0.000000
 11
-17.973972
 21
5.832541
 31
0.000000
  0
LINE
  8
1
 10
-17.973972
 20
5.832541
 30
0.000000
 11
-17.991489
 21
5.836184
 31
0.000000
  0
LINE
  8
1
 10
-17.991489
 20
5.836184
 30
0.000000
 11
-18.010439
 21
5.839952
 31
0.000000
  0
LINE
  8
1
 10
-18.010439
 20
5.839952
 30
0.000000
 11
-18.030828
 21
5.843822
 31
0.000000
  0
LINE
  8
1
 10
-18.030828
 20
5.843822
 30
0.000000
 11
-18.052658
 21
5.847769
 31
0.000000
  0
LINE
  8
1
 10
-18.052658
 20
5.847769
 30
0.000000
 11
-18.075933
 21
5.851767
 31
0.000000
  0
LINE
  8
1
 10
-18.075933
 20
5.851767
 30
0.000000
 11
-18.100655
 21
5.855793
 31
0.000000
  0
LINE
  8
1
 10
-18.100655
 20
5.855793
 30
0.000000
 11
-18.126823
 21
5.859819
 31
0.000000
  0
LINE
  8
1
 10
-18.126823
 20
5.859819
 30
0.000000
 11
-18.154444
 21
5.863823
 31
0.000000
  0
LINE
  8
1
 10
-18.154444
 20
5.863823
 30
0.000000
 11
-18.183516
 21
5.867778
 31
0.000000
  0
LINE
  8
1
 10
-18.183516
 20
5.867778
 30
0.000000
 11
-18.214043
 21
5.871661
 31
0.000000
  0
LINE
  8
1
 10
-18.214043
 20
5.871661
 30
0.000000
 11
-18.246021
 21
5.875444
 31
0.000000
  0
LINE
  8
1
 10
-18.246021
 20
5.875444
 30
0.000000
 11
-18.279455
 21
5.879105
 31
0.000000
  0
LINE
  8
1
 10
-18.279455
 20
5.879105
 30
0.000000
 11
-18.314342
 21
5.882617
 31
0.000000
  0
LINE
  8
1
 10
-18.314342
 20
5.882617
 30
0.000000
 11
-18.350687
 21
5.885955
 31
0.000000
  0
LINE
  8
1
 10
-18.350687
 20
5.885955
 30
0.000000
 11
-18.388485
 21
5.889095
 31
0.000000
  0
LINE
  8
1
 10
-18.388485
 20
5.889095
 30
0.000000
 11
-18.427734
 21
5.892011
 31
0.000000
  0
LINE
  8
1
 10
-18.427734
 20
5.892011
 30
0.000000
 11
-18.468439
 21
5.894678
 31
0.000000
  0
LINE
  8
1
 10
-18.468439
 20
5.894678
 30
0.000000
 11
-18.510592
 21
5.897070
 31
0.000000
  0
LINE
  8
1
 10
-18.510592
 20
5.897070
 30
0.000000
 11
-18.554193
 21
5.899164
 31
0.000000
  0
LINE
  8
1
 10
-18.554193
 20
5.899164
 30
0.000000
 11
-18.599243
 21
5.900932
 31
0.000000
  0
LINE
  8
1
 10
-18.599243
 20
5.900932
 30
0.000000
 11
-18.645737
 21
5.902352
 31
0.000000
  0
LINE
  8
1
 10
-18.645737
 20
5.902352
 30
0.000000
 11
-18.693670
 21
5.903397
 31
0.000000
  0
LINE
  8
1
 10
-18.693670
 20
5.903397
 30
0.000000
 11
-18.743044
 21
5.904042
 31
0.000000
  0
LINE
  8
1
 10
-18.743044
 20
5.904042
 30
0.000000
 11
-18.793852
 21
5.904263
 31
0.000000
  0
LINE
  8
1
 10
-18.793852
 20
5.904263
 30
0.000000
 11
-18.846090
 21
5.904034
 31
0.000000
  0
LINE
  8
1
 10
-18.846090
 20
5.904034
 30
0.000000
 11
-18.899759
 21
5.903330
 31
0.000000
  0
LINE
  8
1
 10
-18.899759
 20
5.903330
 30
0.000000
 11
-18.954847
 21
5.902127
 31
0.000000
  0
LINE
  8
1
 10
-18.954847
 20
5.902127
 30
0.000000
 11
-19.011354
 21
5.900400
 31
0.000000
  0
LINE
  8
1
 10
-19.011354
 20
5.900400
 30
0.000000
 11
-19.069275
 21
5.898123
 31
0.000000
  0
LINE
  8
1
 10
-19.069275
 20
5.898123
 30
0.000000
 11
-19.128601
 21
5.895272
 31
0.000000
  0
LINE
  8
1
 10
-19.128601
 20
5.895272
 30
0.000000
 11
-19.189333
 21
5.891823
 31
0.000000
  0
LINE
  8
1
 10
-19.189333
 20
5.891823
 30
0.000000
 11
-19.251457
 21
5.887750
 31
0.000000
  0
LINE
  8
1
 10
-19.251457
 20
5.887750
 30
0.000000
 11
-19.314970
 21
5.883029
 31
0.000000
  0
LINE
  8
1
 10
-19.314970
 20
5.883029
 30
0.000000
 11
-19.379868
 21
5.877635
 31
0.000000
  0
LINE
  8
1
 10
-19.379868
 20
5.877635
 30
0.000000
 11
-19.446142
 21
5.871545
 31
0.000000
  0
LINE
  8
1
 10
-19.446142
 20
5.871545
 30
0.000000
 11
-19.513783
 21
5.864733
 31
0.000000
  0
LINE
  8
1
 10
-19.513783
 20
5.864733
 30
0.000000
 11
-19.582785
 21
5.857175
 31
0.000000
  0
LINE
  8
1
 10
-19.582785
 20
5.857175
 30
0.000000
 11
-19.653139
 21
5.848846
 31
0.000000
  0
LINE
  8
1
 10
-19.653139
 20
5.848846
 30
0.000000
 11
-19.724838
 21
5.839724
 31
0.000000
  0
LINE
  8
1
 10
-19.724838
 20
5.839724
 30
0.000000
 11
-19.797873
 21
5.829783
 31
0.000000
  0
LINE
  8
1
 10
-19.797873
 20
5.829783
 30
0.000000
 11
-19.872234
 21
5.819001
 31
0.000000
  0
LINE
  8
1
 10
-19.872234
 20
5.819001
 30
0.000000
 11
-19.947914
 21
5.807351
 31
0.000000
  0
LINE
  8
1
 10
-19.947914
 20
5.807351
 30
0.000000
 11
-20.024902
 21
5.794812
 31
0.000000
  0
LINE
  8
1
 10
-20.024902
 20
5.794812
 30
0.000000
 11
-20.103188
 21
5.781359
 31
0.000000
  0
LINE
  8
1
 10
-20.103188
 20
5.781359
 30
0.000000
 11
-20.182762
 21
5.766969
 31
0.000000
  0
LINE
  8
1
 10
-20.182762
 20
5.766969
 30
0.000000
 11
-20.263611
 21
5.751617
 31
0.000000
  0
LINE
  8
1
 10
-20.263611
 20
5.751617
 30
0.000000
 11
-20.345730
 21
5.735282
 31
0.000000
  0
LINE
  8
1
 10
-20.345730
 20
5.735282
 30
0.000000
 11
-20.429104
 21
5.717939
 31
0.000000
  0
LINE
  8
1
 10
-20.429104
 20
5.717939
 30
0.000000
 11
-20.513721
 21
5.699566
 31
0.000000
  0
LINE
  8
1
 10
-20.513721
 20
5.699566
 30
0.000000
 11
-20.599571
 21
5.680139
 31
0.000000
  0
LINE
  8
1
 10
-20.599571
 20
5.680139
 30
0.000000
 11
-20.686642
 21
5.659636
 31
0.000000
  0
LINE
  8
1
 10
-20.686642
 20
5.659636
 30
0.000000
 11
-20.774920
 21
5.638033
 31
0.000000
  0
LINE
  8
1
 10
-20.774920
 20
5.638033
 30
0.000000
 11
-20.864393
 21
5.615308
 31
0.000000
  0
LINE
  8
1
 10
-20.864393
 20
5.615308
 30
0.000000
 11
-20.955050
 21
5.591440
 31
0.000000
  0
LINE
  8
1
 10
-20.955050
 20
5.591440
 30
0.000000
 11
-21.046873
 21
5.566404
 31
0.000000
  0
LINE
  8
1
 10
-21.046873
 20
5.566404
 30
0.000000
 11
-21.139854
 21
5.540180
 31
0.000000
  0
LINE
  8
1
 10
-21.139854
 20
5.540180
 30
0.000000
 11
-21.233976
 21
5.512744
 31
0.000000
  0
LINE
  8
1
 10
-21.233976
 20
5.512744
 30
0.000000
 11
-21.303522
 21
5.491814
 31
0.000000
  0
LINE
  8
1
 10
-21.303522
 20
5.491814
 30
0.000000
 11
-21.607706
 21
4.136065
 31
0.000000
  0
LINE
  8
1
 10
-21.607706
 20
4.136065
 30
0.000000
 11
-21.553770
 21
4.087429
 31
0.000000
  0
LINE
  8
1
 10
-21.553770
 20
4.087429
 30
0.000000
 11
-21.480392
 21
4.022411
 31
0.000000
  0
LINE
  8
1
 10
-21.480392
 20
4.022411
 30
0.000000
 11
-21.407528
 21
3.958977
 31
0.000000
  0
LINE
  8
1
 10
-21.407528
 20
3.958977
 30
0.000000
 11
-21.335201
 21
3.897111
 31
0.000000
  0
LINE
  8
1
 10
-21.335201
 20
3.897111
 30
0.000000
 11
-21.263432
 21
3.836800
 31
0.000000
  0
LINE
  8
1
 10
-21.263432
 20
3.836800
 30
0.000000
 11
-21.192244
 21
3.778028
 31
0.000000
  0
LINE
  8
1
 10
-21.192244
 20
3.778028
 30
0.000000
 11
-21.121656
 21
3.720781
 31
0.000000
  0
LINE
  8
1
 10
-21.121656
 20
3.720781
 30
0.000000
 11
-21.051691
 21
3.665044
 31
0.000000
  0
LINE
  8
1
 10
-21.051691
 20
3.665044
 30
0.000000
 11
-20.982372
 21
3.610802
 31
0.000000
  0
LINE
  8
1
 10
-20.982372
 20
3.610802
 30
0.000000
 11
-20.913715
 21
3.558039
 31
0.000000
  0
LINE
  8
1
 10
-20.913715
 20
3.558039
 30
0.000000
 11
-20.845741
 21
3.506739
 31
0.000000
  0
LINE
  8
1
 10
-20.845741
 20
3.506739
 30
0.000000
 11
-20.778473
 21
3.456887
 31
0.000000
  0
LINE
  8
1
 10
-20.778473
 20
3.456887
 30
0.000000
 11
-20.711931
 21
3.408465
 31
0.000000
  0
LINE
  8
1
 10
-20.711931
 20
3.408465
 30
0.000000
 11
-20.646133
 21
3.361458
 31
0.000000
  0
LINE
  8
1
 10
-20.646133
 20
3.361458
 30
0.000000
 11
-20.581100
 21
3.315849
 31
0.000000
  0
LINE
  8
1
 10
-20.581100
 20
3.315849
 30
0.000000
 11
-20.516848
 21
3.271620
 31
0.000000
  0
LINE
  8
1
 10
-20.516848
 20
3.271620
 30
0.000000
 11
-20.453402
 21
3.228755
 31
0.000000
  0
LINE
  8
1
 10
-20.453402
 20
3.228755
 30
0.000000
 11
-20.390774
 21
3.187237
 31
0.000000
  0
LINE
  8
1
 10
-20.390774
 20
3.187237
 30
0.000000
 11
-20.328985
 21
3.147046
 31
0.000000
  0
LINE
  8
1
 10
-20.328985
 20
3.147046
 30
0.000000
 11
-20.268057
 21
3.108166
 31
0.000000
  0
LINE
  8
1
 10
-20.268057
 20
3.108166
 30
0.000000
 11
-20.208006
 21
3.070579
 31
0.000000
  0
LINE
  8
1
 10
-20.208006
 20
3.070579
 30
0.000000
 11
-20.148846
 21
3.034266
 31
0.000000
  0
LINE
  8
1
 10
-20.148846
 20
3.034266
 30
0.000000
 11
-20.090599
 21
2.999209
 31
0.000000
  0
LINE
  8
1
 10
-20.090599
 20
2.999209
 30
0.000000
 11
-20.033281
 21
2.965388
 31
0.000000
  0
LINE
  8
1
 10
-20.033281
 20
2.965388
 30
0.000000
 11
-19.976908
 21
2.932786
 31
0.000000
  0
LINE
  8
1
 10
-19.976908
 20
2.932786
 30
0.000000
 11
-19.921499
 21
2.901382
 31
0.000000
  0
LINE
  8
1
 10
-19.921499
 20
2.901382
 30
0.000000
 11
-19.867069
 21
2.871158
 31
0.000000
  0
LINE
  8
1
 10
-19.867069
 20
2.871158
 30
0.000000
 11
-19.813635
 21
2.842094
 31
0.000000
  0
LINE
  8
1
 10
-19.813635
 20
2.842094
 30
0.000000
 11
-19.761213
 21
2.814170
 31
0.000000
  0
LINE
  8
1
 10
-19.761213
 20
2.814170
 30
0.000000
 11
-19.709816
 21
2.787367
 31
0.000000
  0
LINE
  8
1
 10
-19.709816
 20
2.787367
 30
0.000000
 11
-19.659464
 21
2.761663
 31
0.000000
  0
LINE
  8
1
 10
-19.659464
 20
2.761663
 30
0.000000
 11
-19.610170
 21
2.737040
 31
0.000000
  0
LINE
  8
1
 10
-19.610170
 20
2.737040
 30
0.000000
 11
-19.561947
 21
2.713476
 31
0.000000
  0
LINE
  8
1
 10
-19.561947
 20
2.713476
 30
0.000000
 11
-19.514814
 21
2.690951
 31
0.000000
  0
LINE
  8
1
 10
-19.514814
 20
2.690951
 30
0.000000
 11
-19.468782
 21
2.669444
 31
0.000000
  0
LINE
  8
1
 10
-19.468782
 20
2.669444
 30
0.000000
 11
-19.423866
 21
2.648934
 31
0.000000
  0
LINE
  8
1
 10
-19.423866
 20
2.648934
 30
0.000000
 11
-19.380079
 21
2.629399
 31
0.000000
  0
LINE
  8
1
 10
-19.380079
 20
2.629399
 30
0.000000
 11
-19.337437
 21
2.610819
 31
0.000000
  0
LINE
  8
1
 10
-19.337437
 20
2.610819
 30
0.000000
 11
-19.295950
 21
2.593173
 31
0.000000
  0
LINE
  8
1
 10
-19.295950
 20
2.593173
 30
0.000000
 11
-19.255632
 21
2.576437
 31
0.000000
  0
LINE
  8
1
 10
-19.255632
 20
2.576437
 30
0.000000
 11
-19.216497
 21
2.560591
 31
0.000000
  0
LINE
  8
1
 10
-19.216497
 20
2.560591
 30
0.000000
 11
-19.178556
 21
2.545613
 31
0.000000
  0
LINE
  8
1
 10
-19.178556
 20
2.545613
 30
0.000000
 11
-19.141825
 21
2.531481
 31
0.000000
  0
LINE
  8
1
 10
-19.141825
 20
2.531481
 30
0.000000
 11
-19.106308
 21
2.518171
 31
0.000000
  0
LINE
  8
1
 10
-19.106308
 20
2.518171
 30
0.000000
 11
-19.072021
 21
2.505662
 31
0.000000
  0
LINE
  8
1
 10
-19.072021
 20
2.505662
 30
0.000000
 11
-19.038977
 21
2.493932
 31
0.000000
  0
LINE
  8
1
 10
-19.038977
 20
2.493932
 30
0.000000
 11
-19.007185
 21
2.482958
 31
0.000000
  0
LINE
  8
1
 10
-19.007185
 20
2.482958
 30
0.000000
 11
-18.976654
 21
2.472717
 31
0.000000
  0
LINE
  8
1
 10
-18.976654
 20
2.472717
 30
0.000000
 11
-18.947395
 21
2.463186
 31
0.000000
  0
LINE
  8
1
 10
-18.947395
 20
2.463186
 30
0.000000
 11
-18.919420
 21
2.454342
 31
0.000000
  0
LINE
  8
1
 10
-18.919420
 20
2.454342
 30
0.000000
 11
-18.892736
 21
2.446161
 31
0.000000
  0
LINE
  8
1
 10
-18.892736
 20
2.446161
 30
0.000000
 11
-18.867355
 21
2.438622
 31
0.000000
  0
LINE
  8
1
 10
-18.867355
 20
2.438622
 30
0.000000
 11
-18.843285
 21
2.431700
 31
0.000000
  0
LINE
  8
1
 10
-18.843285
 20
2.431700
 30
0.000000
 11
-18.820532
 21
2.425371
 31
0.000000
  0
LINE
  8
1
 10
-18.820532
 20
2.425371
 30
0.000000
 11
-18.799109
 21
2.419613
 31
0.000000
  0
LINE
  8
1
 10
-18.799109
 20
2.419613
 30
0.000000
 11
-18.779020
 21
2.414401
 31
0.000000
  0
LINE
  8
1
 10
-18.779020
 20
2.414401
 30
0.000000
 11
-18.760277
 21
2.409712
 31
0.000000
  0
LINE
  8
1
 10
-18.760277
 20
2.409712
 30
0.000000
 11
-18.742884
 21
2.405522
 31
0.000000
  0
LINE
  8
1
 10
-18.742884
 20
2.405522
 30
0.000000
 11
-18.726849
 21
2.401807
 31
0.000000
  0
LINE
  8
1
 10
-18.726849
 20
2.401807
 30
0.000000
 11
-18.712181
 21
2.398542
 31
0.000000
  0
LINE
  8
1
 10
-18.712181
 20
2.398542
 30
0.000000
 11
-18.698883
 21
2.395705
 31
0.000000
  0
LINE
  8
1
 10
-18.698883
 20
2.395705
 30
0.000000
 11
-18.686964
 21
2.393270
 31
0.000000
  0
LINE
  8
1
 10
-18.686964
 20
2.393270
 30
0.000000
 11
-18.676428
 21
2.391213
 31
0.000000
  0
LINE
  8
1
 10
-18.676428
 20
2.391213
 30
0.000000
 11
-18.667284
 21
2.389510
 31
0.000000
  0
LINE
  8
1
 10
-18.667284
 20
2.389510
 30
0.000000
 11
-18.659531
 21
2.388136
 31
0.000000
  0
LINE
  8
1
 10
-18.659531
 20
2.388136
 30
0.000000
 11
-18.653181
 21
2.387067
 31
0.000000
  0
LINE
  8
1
 10
-18.653181
 20
2.387067
 30
0.000000
 11
-18.648233
 21
2.386279
 31
0.000000
  0
LINE
  8
1
 10
-18.648233
 20
2.386279
 30
0.000000
 11
-18.644697
 21
2.385747
 31
0.000000
  0
LINE
  8
1
 10
-18.644697
 20
2.385747
 30
0.000000
 11
-18.641861
 21
2.385350
 31
0.000000
  0
LINE
  8
1
 10
-18.641861
 20
2.385350
 30
0.000000
 11
-17.358473
 21
2.221132
 31
0.000000
  0
LINE
  8
1
 10
-17.358473
 20
2.221132
 30
0.000000
 11
-17.500000
 21
0.000000
 31
0.000000
  0
LINE
  8
1
 10
-17.500000
 20
0.000000
 30
0.000000
 11
-18.793852
 21
0.000000
 31
0.000000
  0
LINE
  8
1
 10
-18.793852
 20
0.000000
 30
0.000000
 11
-18.796715
 21
-0.000033
 31
0.000000
  0
LINE
  8
1
 10
-18.796715
 20
-0.000033
 30
0.000000
 11
-18.800291
 21
-0.000112
 31
0.000000
  0
LINE
  8
1
 10
-18.800291
 20
-0.000112
 30
0.000000
 11
-18.805298
 21
-0.000266
 31
0.000000
  0
LINE
  8
1
 10
-18.805298
 20
-0.000266
 30
0.000000
 11
-18.811733
 21
-0.000520
 31
0.000000
  0
LINE
  8
1
 10
-18.811733
 20
-0.000520
 30
0.000000
 11
-18.819597
 21
-0.000899
 31
0.000000
  0
LINE
  8
1
 10
-18.819597
 20
-0.000899
 30
0.000000
 11
-18.828884
 21
-0.001427
 31
0.000000
  0
LINE
  8
1
 10
-18.828884
 20
-0.001427
 30
0.000000
 11
-18.839596
 21
-0.002131
 31
0.000000
  0
LINE
  8
1
 10
-18.839596
 20
-0.002131
 30
0.000000
 11
-18.851727
 21
-0.003033
 31
0.000000
  0
LINE
  8
1
 10
-18.851727
 20
-0.003033
 30
0.000000
 11
-18.865278
 21
-0.004160
 31
0.000000
  0
LINE
  8
1
 10
-18.865278
 20
-0.004160
 30
0.000000
 11
-18.880241
 21
-0.005536
 31
0.000000
  0
LINE
  8
1
 10
-18.880241
 20
-0.005536
 30
0.000000
 11
-18.896618
 21
-0.007186
 31
0.000000
  0
LINE
  8
1
 10
-18.896618
 20
-0.007186
 30
0.000000
 11
-18.914402
 21
-0.009135
 31
0.000000
  0
LINE
  8
1
 10
-18.914402
 20
-0.009135
 30
0.000000
 11
-18.933590
 21
-0.011407
 31
0.000000
  0
LINE
  8
1
 10
-18.933590
 20
-0.011407
 30
0.000000
 11
-18.954176
 21
-0.014027
 31
0.000000
  0
LINE
  8
1
 10
-18.954176
 20
-0.014027
 30
0.000000
 11
-18.976158
 21
-0.017020
 31
0.000000
  0
LINE
  8
1
 10
-18.976158
 20
-0.017020
 30
0.000000
 11
-18.999529
 21
-0.020409
 31
0.000000
  0
LINE
  8
1
 10
-18.999529
 20
-0.020409
 30
0.000000
 11
-19.024284
 21
-0.024220
 31
0.000000
  0
LINE
  8
1
 10
-19.024284
 20
-0.024220
 30
0.000000
 11
-19.050417
 21
-0.028478
 31
0.000000
  0
LINE
  8
1
 10
-19.050417
 20
-0.028478
 30
0.000000
 11
-19.077923
 21
-0.033205
 31
0.000000
  0
LINE
  8
1
 10
-19.077923
 20
-0.033205
 30
0.000000
 11
-19.106794
 21
-0.038427
 31
0.000000
  0
LINE
  8
1
 10
-19.106794
 20
-0.038427
 30
0.000000
 11
-19.137026
 21
-0.044168
 31
0.000000
  0
LINE
  8
1
 10
-19.137026
 20
-0.044168
 30
0.000000
 11
-19.168610
 21
-0.050451
 31
0.000000
  0
LINE
  8
1
 10
-19.168610
 20
-0.050451
 30
0.000000
 11
-19.201538
 21
-0.057301
 31
0.000000
  0
LINE
  8
1
 10
-19.201538
 20
-0.057301
 30
0.000000
 11
-19.235804
 21
-0.064742
 31
0.000000
  0
LINE
  8
1
 10
-19.235804
 20
-0.064742
 30
0.000000
 11
-19.271400
 21
-0.072798
 31
0.000000
  0
LINE
  8
1
 10
-19.271400
 20
-0.072798
 30
0.000000
 11
-19.308319
 21
-0.081492
 31
0.000000
  0
LINE
  8
1
 10
-19.308319
 20
-0.081492
 30
0.000000
 11
-19.346548
 21
-0.090848
 31
0.000000
  0
LINE
  8
1
 10
-19.346548
 20
-0.090848
 30
0.000000
 11
-19.386084
 21
-0.100890
 31
0.000000
  0
LINE
  8
1
 10
-19.386084
 20
-0.100890
 30
0.000000
 11
-19.426912
 21
-0.111640
 31
0.000000
  0
LINE
  8
1
 10
-19.426912
 20
-0.111640
 30
0.000000
 11
-19.469028
 21
-0.123123
 31
0.000000
  0
LINE
  8
1
 10
-19.469028
 20
-0.123123
 30
0.000000
 11
-19.512419
 21
-0.135362
 31
0.000000
  0
LINE
  8
1
 10
-19.512419
 20
-0.135362
 30
0.000000
 11
-19.557076
 21
-0.148379
 31
0.000000
  0
LINE
  8
1
 10
-19.557076
 20
-0.148379
 30
0.000000
 11
-19.602987
 21
-0.162198
 31
0.000000
  0
LINE
  8
1
 10
-19.602987
 20
-0.162198
 30
0.000000
 11
-19.650143
 21
-0.176841
 31
0.000000
  0
LINE
  8
1
 10
-19.650143
 20
-0.176841
 30
0.000000
 11
-19.698532
 21
-0.192332
 31
0.000000
  0
LINE
  8
1
 10
-19.698532
 20
-0.192332
 30
0.000000
 11
-19.748144
 21
-0.208693
 31
0.000000
  0
LINE
  8
1
 10
-19.748144
 20
-0.208693
 30
0.000000
 11
-19.798967
 21
-0.225946
 31
0.000000
  0
LINE
  8
1
 10
-19.798967
 20
-0.225946
 30
0.000000
 11
-19.850988
 21
-0.244113
 31
0.000000
  0
LINE
  8
1
 10
-19.850988
 20
-0.244113
 30
0.000000
 11
-19.904196
 21
-0.263218
 31
0.000000
  0
LINE
  8
1
 10
-19.904196
 20
-0.263218
 30
0.000000
 11
-19.958578
 21
-0.283282
 31
0.000000
  0
LINE
  8
1
 10
-19.958578
 20
-0.283282
 30
0.000000
 11
-20.014120
 21
-0.304326
 31
0.000000
  0
LINE
  8
1
 10
-20.014120
 20
-0.304326
 30
0.000000
 11
-20.070812
 21
-0.326373
 31
0.000000
  0
LINE
  8
1
 10
-20.070812
 20
-0.326373
 30
0.000000
 11
-20.128637
 21
-0.349444
 31
0.000000
  0
LINE
  8
1
 10
-20.128637
 20
-0.349444
 30
0.000000
 11
-20.187584
 21
-0.373561
 31
0.000000
  0
LINE
  8
1
 10
-20.187584
 20
-0.373561
 30
0.000000
 11
-20.247639
 21
-0.398745
 31
0.000000
  0
LINE
  8
1
 10
-20.247639
 20
-0.398745
 30
0.000000
 11
-20.308786
 21
-0.425017
 31
0.000000
  0
LINE
  8
1
 10
-20.308786
 20
-0.425017
 30
0.000000
 11
-20.371012
 21
-0.452398
 31
0.000000
  0
LINE
  8
1
 10
-20.371012
 20
-0.452398
 30
0.000000
 11
-20.434301
 21
-0.480909
 31
0.000000
  0
LINE
  8
1
 10
-20.434301
 20
-0.480909
 30
0.000000
 11
-20.498638
 21
-0.510570
 31
0.000000
  0
LINE
  8
1
 10
-20.498638
 20
-0.510570
 30
0.000000
 11
-20.564009
 21
-0.541403
 31
0.000000
  0
LINE
  8
1
 10
-20.564009
 20
-0.541403
 30
0.000000
 11
-20.630398
 21
-0.573426
 31
0.000000
  0
LINE
  8
1
 10
-20.630398
 20
-0.573426
 30
0.000000
 11
-20.697788
 21
-0.606660
 31
0.000000
  0
LINE
  8
1
 10
-20.697788
 20
-0.606660
 30
0.000000
 11
-20.766163
 21
-0.641125
 31
0.000000
  0
LINE
  8
1
 10
-20.766163
 20
-0.641125
 30
0.000000
 11
-20.835508
 21
-0.676841
 31
0.000000
  0
LINE
  8
1
 10
-20.835508
 20
-0.676841
 30
0.000000
 11
-20.905806
 21
-0.713827
 31
0.000000
  0
LINE
  8
1
 10
-20.905806
 20
-0.713827
 30
0.000000
 11
-20.977037
 21
-0.752103
 31
0.000000
  0
LINE
  8
1
 10
-20.977037
 20
-0.752103
 30
0.000000
 11
-21.049187
 21
-0.791687
 31
0.000000
  0
LINE
  8
1
 10
-21.049187
 20
-0.791687
 30
0.000000
 11
-21.122238
 21
-0.832599
 31
0.000000
  0
LINE
  8
1
 10
-21.122238
 20
-0.832599
 30
0.000000
 11
-21.196173
 21
-0.874857
 31
0.000000
  0
LINE
  8
1
 10
-21.196173
 20
-0.874857
 30
0.000000
 11
-21.270971
 21
-0.918479
 31
0.000000
  0
LINE
  8
1
 10
-21.270971
 20
-0.918479
 30
0.000000
 11
-21.346615
 21
-0.963484
 31
0.000000
  0
LINE
  8
1
 10
-21.346615
 20
-0.963484
 30
0.000000
 11
-21.423088
 21
-1.009890
 31
0.000000
  0
LINE
  8
1
 10
-21.423088
 20
-1.009890
 30
0.000000
 11
-21.500370
 21
-1.057715
 31
0.000000
  0
LINE
  8
1
 10
-21.500370
 20
-1.057715
 30
0.000000
 11
-21.578442
 21
-1.106976
 31
0.000000
  0
LINE
  8
1
 10
-21.578442
 20
-1.106976
 30
0.000000
 11
-21.657286
 21
-1.157691
 31
0.000000
  0
LINE
  8
1
 10
-21.657286
 20
-1.157691
 30
0.000000
 11
-21.736879
 21
-1.209877
 31
0.000000
  0
LINE
  8
1
 10
-21.736879
 20
-1.209877
 30
0.000000
 11
-21.817205
 21
-1.263550
 31
0.000000
  0
LINE
  8
1
 10
-21.817205
 20
-1.263550
 30
0.000000
 11
-21.898243
 21
-1.318728
 31
0.000000
  0
LINE
  8
1
 10
-21.898243
 20
-1.318728
 30
0.000000
 11
-21.957916
 21
-1.360125
 31
0.000000
  0
LINE
  8
1
 10
-21.957916
 20
-1.360125
 30
0.000000
 11
-21.828264
 21
-2.743518
 31
0.000000
  0
LINE
  8
1
 10
-21.828264
 20
-2.743518
 30
0.000000
 11
-21.761940
 21
-2.773106
 31
0.000000
  0
LINE
  8
1
 10
-21.761940
 20
-2.773106
 30
0.000000
 11
-21.672060
 21
-2.812266
 31
0.000000
  0
LINE
  8
1
 10
-21.672060
 20
-2.812266
 30
0.000000
 11
-21.583160
 21
-2.850079
 31
0.000000
  0
LINE
  8
1
 10
-21.583160
 20
-2.850079
 30
0.000000
 11
-21.495256
 21
-2.886567
 31
0.000000
  0
LINE
  8
1
 10
-21.495256
 20
-2.886567
 30
0.000000
 11
-21.408361
 21
-2.921748
 31
0.000000
  0
LINE
  8
1
 10
-21.408361
 20
-2.921748
 30
0.000000
 11
-21.322496
 21
-2.955646
 31
0.000000
  0
LINE
  8
1
 10
-21.322496
 20
-2.955646
 30
0.000000
 11
-21.237675
 21
-2.988278
 31
0.000000
  0
LINE
  8
1
 10
-21.237675
 20
-2.988278
 30
0.000000
 11
-21.153910
 21
-3.019666
 31
0.000000
  0
LINE
  8
1
 10
-21.153910
 20
-3.019666
 30
0.000000
 11
-21.071220
 21
-3.049833
 31
0.000000
  0
LINE
  8
1
 10
-21.071220
 20
-3.049833
 30
0.000000
 11
-20.989620
 21
-3.078797
 31
0.000000
  0
LINE
  8
1
 10
-20.989620
 20
-3.078797
 30
0.000000
 11
-20.909121
 21
-3.106582
 31
0.000000
  0
LINE
  8
1
 10
-20.909121
 20
-3.106582
 30
0.000000
 11
-20.829741
 21
-3.133207
 31
0.000000
  0
LINE
  8
1
 10
-20.829741
 20
-3.133207
 30
0.000000
 11
-20.751492
 21
-3.158696
 31
0.000000
  0
LINE
  8
1
 10
-20.751492
 20
-3.158696
 30
0.000000
 11
-20.674389
 21
-3.183070
 31
0.000000
  0
LINE
  8
1
 10
-20.674389
 20
-3.183070
 30
0.000000
 11
-20.598444
 21
-3.206350
 31
0.000000
  0
LINE
  8
1
 10
-20.598444
 20
-3.206350
 30
0.000000
 11
-20.523668
 21
-3.228559
 31
0.000000
  0
LINE
  8
1
 10
-20.523668
 20
-3.228559
 30
0.000000
 11
-20.450081
 21
-3.249720
 31
0.000000
  0
LINE
  8
1
 10
-20.450081
 20
-3.249720
 30
0.000000
 11
-20.377689
 21
-3.269854
 31
0.000000
  0
LINE
  8
1
 10
-20.377689
 20
-3.269854
 30
0.000000
 11
-20.306505
 21
-3.288984
 31
0.000000
  0
LINE
  8
1
 10
-20.306505
 20
-3.288984
 30
0.000000
 11
-20.236546
 21
-3.307132
 31
0.000000
  0
LINE
  8
1
 10
-20.236546
 20
-3.307132
 30
0.000000
 11
-20.167816
 21
-3.324323
 31
0.000000
  0
LINE
  8
1
 10
-20.167816
 20
-3.324323
 30
0.000000
 11
-20.100332
 21
-3.340578
 31
0.000000
  0
LINE
  8
1
 10
-20.100332
 20
-3.340578
 30
0.000000
 11
-20.034103
 21
-3.355920
 31
0.000000
  0
LINE
  8
1
 10
-20.034103
 20
-3.355920
 30
0.000000
 11
-19.969139
 21
-3.370373
 31
0.000000
  0
LINE
  8
1
 10
-19.969139
 20
-3.370373
 30
0.000000
 11
-19.905449
 21
-3.383959
 31
0.000000
  0
LINE
  8
1
 10
-19.905449
 20
-3.383959
 30
0.000000
 11
-19.843048
 21
-3.396703
 31
0.000000
  0
LINE
  8
1
 10
-19.843048
 20
-3.396703
 30
0.000000
 11
-19.781944
 21
-3.408629
 31
0.000000
  0
LINE
  8
1
 10
-19.781944
 20
-3.408629
 30
0.000000
 11
-19.722141
 21
-3.419758
 31
0.000000
  0
LINE
  8
1
 10
-19.722141
 20
-3.419758
 30
0.000000
 11
-19.663656
 21
-3.430116
 31
0.000000
  0
LINE
  8
1
 10
-19.663656
 20
-3.430116
 30
0.000000
 11
-19.606493
 21
-3.439725
 31
0.000000
  0
LINE
  8
1
 10
-19.606493
 20
-3.439725
 30
0.000000
 11
-19.550663
 21
-3.448611
 31
0.000000
  0
LINE
  8
1
 10
-19.550663
 20
-3.448611
 30
0.000000
 11
-19.496172
 21
-3.456796
 31
0.000000
  0
LINE
  8
1
 10
-19.496172
 20
-3.456796
 30
0.000000
 11
-19.443029
 21
-3.464306
 31
0.000000
  0
LINE
  8
1
 10
-19.443029
 20
-3.464306
 30
0.000000
 11
-19.391241
 21
-3.471163
 31
0.000000
  0
LINE
  8
1
 10
-19.391241
 20
-3.471163
 30
0.000000
 11
-19.340815
 21
-3.477393
 31
0.000000
  0
LINE
  8
1
 10
-19.340815
 20
-3.477393
 30
0.000000
 11
-19.291759
 21
-3.483019
 31
0.000000
  0
LINE
  8
1
 10
-19.291759
 20
-3.483019
 30
0.000000
 11
-19.244080
 21
-3.488067
 31
0.000000
  0
LINE
  8
1
 10
-19.244080
 20
-3.488067
 30
0.000000
 11
-19.197783
 21
-3.492560
 31
0.000000
  0
LINE
  8
1
 10
-19.197783
 20
-3.492560
 30
0.000000
 11
-19.152874
 21
-3.496523
 31
0.000000
  0
LINE
  8
1
 10
-19.152874
 20
-3.496523
 30
0.000000
 11
-19.109358
 21
-3.499980
 31
0.000000
  0
LINE
  8
1
 10
-19.109358
 20
-3.499980
 30
0.000000
 11
-19.067242
 21
-3.502958
 31
0.000000
  0
LINE
  8
1
 10
-19.067242
 20
-3.502958
 30
0.000000
 11
-19.026529
 21
-3.505478
 31
0.000000
  0
LINE
  8
1
 10
-19.026529
 20
-3.505478
 30
0.000000
 11
-18.987228
 21
-3.507568
 31
0.000000
  0
LINE
  8
1
 10
-18.987228
 20
-3.507568
 30
0.000000
 11
-18.949337
 21
-3.509251
 31
0.000000
  0
LINE
  8
1
 10
-18.949337
 20
-3.509251
 30
0.000000
 11
-18.912863
 21
-3.510552
 31
0.000000
  0
LINE
  8
1
 10
-18.912863
 20
-3.510552
 30
0.000000
 11
-18.877811
 21
-3.511497
 31
0.000000
  0
LINE
  8
1
 10
-18.877811
 20
-3.511497
 30
0.000000
 11
-18.844183
 21
-3.512110
 31
0.000000
  0
LINE
  8
1
 10
-18.844183
 20
-3.512110
 30
0.000000
 11
-18.811981
 21
-3.512415
 31
0.000000
  0
LINE
  8
1
 10
-18.811981
 20
-3.512415
 30
0.000000
 11
-18.781210
 21
-3.512439
 31
0.000000
  0
LINE
  8
1
 10
-18.781210
 20
-3.512439
 30
0.000000
 11
-18.751871
 21
-3.512205
 31
0.000000
  0
LINE
  8
1
 10
-18.751871
 20
-3.512205
 30
0.000000
 11
-18.723967
 21
-3.511739
 31
0.000000
  0
LINE
  8
1
 10
-18.723967
 20
-3.511739
 30
0.000000
 11
-18.697498
 21
-3.511066
 31
0.000000
  0
LINE
  8
1
 10
-18.697498
 20
-3.511066
 30
0.000000
 11
-18.672464
 21
-3.510211
 31
0.000000
  0
LINE
  8
1
 10
-18.672464
 20
-3.510211
 30
0.000000
 11
-18.648870
 21
-3.509200
 31
0.000000
  0
LINE
  8
1
 10
-18.648870
 20
-3.509200
 30
0.000000
 11
-18.626717
 21
-3.508056
 31
0.000000
  0
LINE
  8
1
 10
-18.626717
 20
-3.508056
 30
0.000000
 11
-18.606001
 21
-3.506805
 31
0.000000
  0
LINE
  8
1
 10
-18.606001
 20
-3.506805
 30
0.000000
 11
-18.586725
 21
-3.505472
 31
0.000000
  0
LINE
  8
1
 10
-18.586725
 20
-3.505472
 30
0.000000
 11
-18.568890
 21
-3.504082
 31
0.000000
  0
LINE
  8
1
 10
-18.568890
 20
-3.504082
 30
0.000000
 11
-18.552490
 21
-3.502661
 31
0.000000
  0
LINE
  8
1
 10
-18.552490
 20
-3.502661
 30
0.000000
 11
-18.537533
 21
-3.501233
 31
0.000000
  0
LINE
  8
1
 10
-18.537533
 20
-3.501233
 30
0.000000
 11
-18.524008
 21
-3.499822
 31
0.000000
  0
LINE
  8
1
 10
-18.524008
 20
-3.499822
 30
0.000000
 11
-18.511921
 21
-3.498455
 31
0.000000
  0
LINE
  8
1
 10
-18.511921
 20
-3.498455
 30
0.000000
 11
-18.501265
 21
-3.497156
 31
0.000000
  0
LINE
  8
1
 10
-18.501265
 20
-3.497156
 30
0.000000
 11
-18.492041
 21
-3.495949
 31
0.000000
  0
LINE
  8
1
 10
-18.492041
 20
-3.495949
 30
0.000000
 11
-18.484243
 21
-3.494860
 31
0.000000
  0
LINE
  8
1
 10
-18.484243
 20
-3.494860
 30
0.000000
 11
-18.477873
 21
-3.493914
 31
0.000000
  0
LINE
  8
1
 10
-18.477873
 20
-3.493914
 30
0.000000
 11
-18.472925
 21
-3.493135
 31
0.000000
  0
LINE
  8
1
 10
-18.472925
 20
-3.493135
 30
0.000000
 11
-18.469397
 21
-3.492548
 31
0.000000
  0
LINE
  8
1
 10
-18.469397
 20
-3.492548
 30
0.000000
 11
-18.466578
 21
-3.492049
 31
0.000000
  0
LINE
  8
1
 10
-18.466578
 20
-3.492049
 30
0.000000
 11
-17.195257
 21
-3.251641
 31
0.000000
  0
LINE
  8
1
 10
-17.195257
 20
-3.251641
 30
0.000000
 11
-16.643490
 21
-5.407797
 31
0.000000
  0
LINE
  8
1
 10
-16.643490
 20
-5.407797
 30
0.000000
 11
-17.874016
 21
-5.807620
 31
0.000000
  0
LINE
  8
1
 10
-17.874016
 20
-5.807620
 30
0.000000
 11
-17.876728
 21
-5.808536
 31
0.000000
  0
LINE
  8
1
 10
-17.876728
 20
-5.808536
 30
0.000000
 11
-17.880106
 21
-5.809717
 31
0.000000
  0
LINE
  8
1
 10
-17.880106
 20
-5.809717
 30
0.000000
 11
-17.884819
 21
-5.811410
 31
0.000000
  0
LINE
  8
1
 10
-17.884819
 20
-5.811410
 30
0.000000
 11
-17.890862
 21
-5.813640
 31
0.000000
  0
LINE
  8
1
 10
-17.890862
 20
-5.813640
 30
0.000000
 11
-17.898224
 21
-5.816431
 31
0.000000
  0
LINE
  8
1
 10
-17.898224
 20
-5.816431
 30
0.000000
 11
-17.906893
 21
-5.819803
 31
0.000000
  0
LINE
  8
1
 10
-17.906893
 20
-5.819803
 30
0.000000
 11
-17.916862
 21
-5.823781
 31
0.000000
  0
LINE
  8
1
 10
-17.916862
 20
-5.823781
 30
0.000000
 11
-17.928120
 21
-5.828389
 31
0.000000
  0
LINE
  8
1
 10
-17.928120
 20
-5.828389
 30
0.000000
 11
-17.940660
 21
-5.833648
 31
0.000000
  0
LINE
  8
1
 10
-17.940660
 20
-5.833648
 30
0.000000
 11
-17.954466
 21
-5.839581
 31
0.000000
  0
LINE
  8
1
 10
-17.954466
 20
-5.839581
 30
0.000000
 11
-17.969532
 21
-5.846211
 31
0.000000
  0
LINE
  8
1
 10
-17.969532
 20
-5.846211
 30
0.000000
 11
-17.985844
 21
-5.853559
 31
0.000000
  0
LINE
  8
1
 10
-17.985844
 20
-5.853559
 30
0.000000
 11
-18.003389
 21
-5.861650
 31
0.000000
  0
LINE
  8
1
 10
-18.003389
 20
-5.861650
 30
0.000000
 11
-18.022158
 21
-5.870503
 31
0.000000
  0
LINE
  8
1
 10
-18.022158
 20
-5.870503
 30
0.000000
 11
-18.042139
 21
-5.880142
 31
0.000000
  0
LINE
  8
1
 10
-18.042139
 20
-5.880142
 30
0.000000
 11
-18.063320
 21
-5.890588
 31
0.000000
  0
LINE
  8
1
 10
-18.063320
 20
-5.890588
 30
0.000000
 11
-18.085686
 21
-5.901862
 31
0.000000
  0
LINE
  8
1
 10
-18.085686
 20
-5.901862
 30
0.000000
 11
-18.109224
 21
-5.913987
 31
0.000000
  0
LINE
  8
1
 10
-18.109224
 20
-5.913987
 30
0.000000
 11
-18.133923
 21
-5.926982
 31
0.000000
  0
LINE
  8
1
 10
-18.133923
 20
-5.926982
 30
0.000000
 11
-18.159767
 21
-5.940870
 31
0.000000
  0
LINE
  8
1
 10
-18.159767
 20
-5.940870
 30
0.000000
 11
-18.186745
 21
-5.955672
 31
0.000000
  0
LINE
  8
1
 10
-18.186745
 20
-5.955672
 30
0.000000
 11
-18.214842
 21
-5.971408
 31
0.000000
  0
LINE
  8
1
 10
-18.214842
 20
-5.971408
 30
0.000000
 11
-18.244041
 21
-5.988099
 31
0.000000
  0
LINE
  8
1
 10
-18.244041
 20
-5.988099
 30
0.000000
 11
-18.274330
 21
-6.005764
 31
0.000000
  0
LINE
  8
1
 10
-18.274330
 20
-6.005764
 30
0.000000
 11
-18.305696
 21
-6.024426
 31
0.000000
  0
LINE
  8
1
 10
-18.305696
 20
-6.024426
 30
0.000000
 11
-18.338121
 21
-6.044102
 31
0.000000
  0
LINE
  8
1
 10
-18.338121
 20
-6.044102
 30
0.000000
 11
-18.371588
 21
-6.064814
 31
0.000000
  0
LINE
  8
1
 10
-18.371588
 20
-6.064814
 30
0.000000
 11
-18.406084
 21
-6.086581
 31
0.000000
  0
LINE
  8
1
 10
-18.406084
 20
-6.086581
 30
0.000000
 11
-18.441593
 21
-6.109422
 31
0.000000
  0
LINE
  8
1
 10
-18.441593
 20
-6.109422
 30
0.000000
 11
-18.478100
 21
-6.133358
 31
0.000000
  0
LINE
  8
1
 10
-18.478100
 20
-6.133358
 30
0.000000
 11
-18.515585
 21
-6.158406
 31
0.000000
  0
LINE
  8
1
 10
-18.515585
 20
-6.158406
 30
0.000000
 11
-18.554033
 21
-6.184586
 31
0.000000
  0
LINE
  8
1
 10
-18.554033
 20
-6.184586
 30
0.000000
 11
-18.593428
 21
-6.211916
 31
0.000000
  0
LINE
  8
1
 10
-18.593428
 20
-6.211916
 30
0.000000
 11
-18.633749
 21
-6.240414
 31
0.000000
  0
LINE
  8
1
 10
-18.633749
 20
-6.240414
 30
0.000000
 11
-18.674984
 21
-6.270100
 31
0.000000
  0
LINE
  8
1
 10
-18.674984
 20
-6.270100
 30
0.000000
 11
-18.717112
 21
-6.300991
 31
0.000000
  0
LINE
  8
1
 10
-18.717112
 20
-6.300991
 30
0.000000
 11
-18.760117
 21
-6.333105
 31
0.000000
  0
LINE
  8
1
 10
-18.760117
 20
-6.333105
 30
0.000000
 11
-18.803978
 21
-6.366458
 31
0.000000
  0
LINE
  8
1
 10
-18.803978
 20
-6.366458
 30
0.000000
 11
-18.848677
 21
-6.401070
 31
0.000000
  0
LINE
  8
1
 10
-18.848677
 20
-6.401070
 30
0.000000
 11
-18.894197
 21
-6.436957
 31
0.000000
  0
LINE
  8
1
 10
-18.894197
 20
-6.436957
 30
0.000000
 11
-18.940517
 21
-6.474135
 31
0.000000
  0
LINE
  8
1
 10
-18.940517
 20
-6.474135
 30
0.000000
 11
-18.987623
 21
-6.512621
 31
0.000000
  0
LINE
  8
1
 10
-18.987623
 20
-6.512621
 30
0.000000
 11
-19.035488
 21
-6.552433
 31
0.000000
  0
LINE
  8
1
 10
-19.035488
 20
-6.552433
 30
0.000000
 11
-19.084097
 21
-6.593585
 31
0.000000
  0
LINE
  8
1
 10
-19.084097
 20
-6.593585
 30
0.000000
 11
-19.133430
 21
-6.636094
 31
0.000000
  0
LINE
  8
1
 10
-19.133430
 20
-6.636094
 30
0.000000
 11
-19.183466
 21
-6.679976
 31
0.000000
  0
LINE
  8
1
 10
-19.183466
 20
-6.679976
 30
0.000000
 11
-19.234184
 21
-6.725245
 31
0.000000
  0
LINE
  8
1
 10
-19.234184
 20
-6.725245
 30
0.000000
 11
-19.285566
 21
-6.771918
 31
0.000000
  0
LINE
  8
1
 10
-19.285566
 20
-6.771918
 30
0.000000
 11
-19.337589
 21
-6.820009
 31
0.000000
  0
LINE
  8
1
 10
-19.337589
 20
-6.820009
 30
0.000000
 11
-19.390232
 21
-6.869533
 31
0.000000
  0
LINE
  8
1
 10
-19.390232
 20
-6.869533
 30
0.000000
 11
-19.443476
 21
-6.920504
 31
0.000000
  0
LINE
  8
1
 10
-19.443476
 20
-6.920504
 30
0.000000
 11
-19.497299
 21
-6.972937
 31
0.000000
  0
LINE
  8
1
 10
-19.497299
 20
-6.972937
 30
0.000000
 11
-19.551676
 21
-7.026844
 31
0.000000
  0
LINE
  8
1
 10
-19.551676
 20
-7.026844
 30
0.000000
 11
-19.606590
 21
-7.082241
 31
0.000000
  0
LINE
  8
1
 10
-19.606590
 20
-7.082241
 30
0.000000
 11
-19.662018
 21
-7.139140
 31
0.000000
  0
LINE
  8
1
 10
-19.662018
 20
-7.139140
 30
0.000000
 11
-19.717936
 21
-7.197554
 31
0.000000
  0
LINE
  8
1
 10
-19.717936
 20
-7.197554
 30
0.000000
 11
-19.774323
 21
-7.257496
 31
0.000000
  0
LINE
  8
1
 10
-19.774323
 20
-7.257496
 30
0.000000
 11
-19.831156
 21
-7.318979
 31
0.000000
  0
LINE
  8
1
 10
-19.831156
 20
-7.318979
 30
0.000000
 11
-19.888412
 21
-7.382016
 31
0.000000
  0
LINE
  8
1
 10
-19.888412
 20
-7.382016
 30
0.000000
 11
-19.946072
 21
-7.446618
 31
0.000000
  0
LINE
  8
1
 10
-19.946072
 20
-7.446618
 30
0.000000
 11
-20.004105
 21
-7.512795
 31
0.000000
  0
LINE
  8
1
 10
-20.004105
 20
-7.512795
 30
0.000000
 11
-20.062494
 21
-7.580561
 31
0.000000
  0
LINE
  8
1
 10
-20.062494
 20
-7.580561
 30
0.000000
 11
-20.121216
 21
-7.649927
 31
0.000000
  0
LINE
  8
1
 10
-20.121216
 20
-7.649927
 30
0.000000
 11
-20.180244
 21
-7.720902
 31
0.000000
  0
LINE
  8
1
 10
-20.180244
 20
-7.720902
 30
0.000000
 11
-20.239557
 21
-7.793499
 31
0.000000
  0
LINE
  8
1
 10
-20.239557
 20
-7.793499
 30
0.000000
 11
-20.299129
 21
-7.867727
 31
0.000000
  0
LINE
  8
1
 10
-20.299129
 20
-7.867727
 30
0.000000
 11
-20.358938
 21
-7.943595
 31
0.000000
  0
LINE
  8
1
 10
-20.358938
 20
-7.943595
 30
0.000000
 11
-20.418959
 21
-8.021114
 31
0.000000
  0
LINE
  8
1
 10
-20.418959
 20
-8.021114
 30
0.000000
 11
-20.462917
 21
-8.078925
 31
0.000000
  0
LINE
  8
1
 10
-20.462917
 20
-8.078925
 30
0.000000
 11
-19.912121
 21
-9.354546
 31
0.000000
  0
LINE
  8
1
 10
-19.912121
 20
-9.354546
 30
0.000000
 11
-19.839897
 21
-9.362189
 31
0.000000
  0
LINE
  8
1
 10
-19.839897
 20
-9.362189
 30
0.000000
 11
-19.742315
 21
-9.371658
 31
0.000000
  0
LINE
  8
1
 10
-19.742315
 20
-9.371658
 30
0.000000
 11
-19.646082
 21
-9.380149
 31
0.000000
  0
LINE
  8
1
 10
-19.646082
 20
-9.380149
 30
0.000000
 11
-19.551205
 21
-9.387688
 31
0.000000
  0
LINE
  8
1
 10
-19.551205
 20
-9.387688
 30
0.000000
 11
-19.457691
 21
-9.394296
 31
0.000000
  0
LINE
  8
1
 10
-19.457691
 20
-9.394296
 30
0.000000
 11
-19.365555
 21
-9.400000
 31
0.000000
  0
LINE
  8
1
 10
-19.365555
 20
-9.400000
 30
0.000000
 11
-19.274799
 21
-9.404823
 31
0.000000
  0
LINE
  8
1
 10
-19.274799
 20
-9.404823
 30
0.000000
 11
-19.185434
 21
-9.408792
 31
0.000000
  0
LINE
  8
1
 10
-19.185434
 20
-9.408792
 30
0.000000
 11
-19.097471
 21
-9.411929
 31
0.000000
  0
LINE
  8
1
 10
-19.097471
 20
-9.411929
 30
0.000000
 11
-19.010914
 21
-9.414260
 31
0.000000
  0
LINE
  8
1
 10
-19.010914
 20
-9.414260
 30
0.000000
 11
-18.925770
 21
-9.415809
 31
0.000000
  0
LINE
  8
1
 10
-18.925770
 20
-9.415809
 30
0.000000
 11
-18.842045
 21
-9.416601
 31
0.000000
  0
LINE
  8
1
 10
-18.842045
 20
-9.416601
 30
0.000000
 11
-18.759750
 21
-9.416662
 31
0.000000
  0
LINE
  8
1
 10
-18.759750
 20
-9.416662
 30
0.000000
 11
-18.678888
 21
-9.416017
 31
0.000000
  0
LINE
  8
1
 10
-18.678888
 20
-9.416017
 30
0.000000
 11
-18.599466
 21
-9.414689
 31
0.000000
  0
LINE
  8
1
 10
-18.599466
 20
-9.414689
 30
0.000000
 11
-18.521488
 21
-9.412704
 31
0.000000
  0
LINE
  8
1
 10
-18.521488
 20
-9.412704
 30
0.000000
 11
-18.444963
 21
-9.410089
 31
0.000000
  0
LINE
  8
1
 10
-18.444963
 20
-9.410089
 30
0.000000
 11
-18.369894
 21
-9.406868
 31
0.000000
  0
LINE
  8
1
 10
-18.369894
 20
-9.406868
 30
0.000000
 11
-18.296282
 21
-9.403065
 31
0.000000
  0
LINE
  8
1
 10
-18.296282
 20
-9.403065
 30
0.000000
 11
-18.224138
 21
-9.398706
 31
0.000000
  0
LINE
  8
1
 10
-18.224138
 20
-9.398706
 30
0.000000
 11
-18.153461
 21
-9.393817
 31
0.000000
  0
LINE
  8
1
 10
-18.153461
 20
-9.393817
 30
0.000000
 11
-18.084257
 21
-9.388422
 31
0.000000
  0
LINE
  8
1
 10
-18.084257
 20
-9.388422
 30
0.000000
 11
-18.016527
 21
-9.382547
 31
0.000000
  0
LINE
  8
1
 10
-18.016527
 20
-9.382547
 30
0.000000
 11
-17.950275
 21
-9.376218
 31
0.000000
  0
LINE
  8
1
 10
-17.950275
 20
-9.376218
 30
0.000000
 11
-17.885506
 21
-9.369459
 31
0.000000
  0
LINE
  8
1
 10
-17.885506
 20
-9.369459
 30
0.000000
 11
-17.822222
 21
-9.362296
 31
0.000000
  0
LINE
  8
1
 10
-17.822222
 20
-9.362296
 30
0.000000
 11
-17.760422
 21
-9.354755
 31
0.000000
  0
LINE
  8
1
 10
-17.760422
 20
-9.354755
 30
0.000000
 11
-17.700108
 21
-9.346860
 31
0.000000
  0
LINE
  8
1
 10
-17.700108
 20
-9.346860
 30
0.000000
 11
-17.641285
 21
-9.338638
 31
0.000000
  0
LINE
  8
1
 10
-17.641285
 20
-9.338638
 30
0.000000
 11
-17.583950
 21
-9.330113
 31
0.000000
  0
LINE
  8
1
 10
-17.583950
 20
-9.330113
 30
0.000000
 11
-17.528107
 21
-9.321311
 31
0.000000
  0
LINE
  8
1
 10
-17.528107
 20
-9.321311
 30
0.000000
 11
-17.473753
 21
-9.312257
 31
0.000000
  0
LINE
  8
1
 10
-17.473753
 20
-9.312257
 30
0.000000
 11
-17.420889
 21
-9.302977
 31
0.000000
  0
LINE
  8
1
 10
-17.420889
 20
-9.302977
 30
0.000000
 11
-17.369516
 21
-9.293495
 31
0.000000
  0
LINE
  8
1
 10
-17.369516
 20
-9.293495
 30
0.000000
 11
-17.319635
 21
-9.283837
 31
0.000000
  0
LINE
  8
1
 10
-17.319635
 20
-9.283837
 30
0.000000
 11
-17.271242
 21
-9.274030
 31
0.000000
  0
LINE
  8
1
 10
-17.271242
 20
-9.274030
 30
0.000000
 11
-17.224337
 21
-9.264096
 31
0.000000
  0
LINE
  8
1
 10
-17.224337
 20
-9.264096
 30
0.000000
 11
-17.178915
 21
-9.254063
 31
0.000000
  0
LINE
  8
1
 10
-17.178915
 20
-9.254063
 30
0.000000
 11
-17.134979
 21
-9.243955
 31
0.000000
  0
LINE
  8
1
 10
-17.134979
 20
-9.243955
 30
0.000000
 11
-17.092525
 21
-9.233795
 31
0.000000
  0
LINE
  8
1
 10
-17.092525
 20
-9.233795
 30
0.000000
 11
-17.051552
 21
-9.223613
 31
0.000000
  0
LINE
  8
1
 10
-17.051552
 20
-9.223613
 30
0.000000
 11
-17.012053
 21
-9.213428
 31
0.000000
  0
LINE
  8
1
 10
-17.012053
 20
-9.213428
 30
0.000000
 11
-16.974028
 21
-9.203272
 31
0.000000
  0
LINE
  8
1
 10
-16.974028
 20
-9.203272
 30
0.000000
 11
-16.937471
 21
-9.193163
 31
0.000000
  0
LINE
  8
1
 10
-16.937471
 20
-9.193163
 30
0.000000
 11
-16.902380
 21
-9.183129
 31
0.000000
  0
LINE
  8
1
 10
-16.902380
 20
-9.183129
 30
0.000000
 11
-16.868753
 21
-9.173197
 31
0.000000
  0
LINE
  8
1
 10
-16.868753
 20
-9.173197
 30
0.000000
 11
-16.836582
 21
-9.163387
 31
0.000000
  0
LINE
  8
1
 10
-16.836582
 20
-9.163387
 30
0.000000
 11
-16.805862
 21
-9.153728
 31
0.000000
  0
LINE
  8
1
 10
-16.805862
 20
-9.153728
 30
0.000000
 11
-16.776588
 21
-9.144240
 31
0.000000
  0
LINE
  8
1
 10
-16.776588
 20
-9.144240
 30
0.000000
 11
-16.748758
 21
-9.134953
 31
0.000000
  0
LINE
  8
1
 10
-16.748758
 20
-9.134953
 30
0.000000
 11
-16.722363
 21
-9.125886
 31
0.000000
  0
LINE
  8
1
 10
-16.722363
 20
-9.125886
 30
0.000000
 11
-16.697397
 21
-9.117067
 31
0.000000
  0
LINE
  8
1
 10
-16.697397
 20
-9.117067
 30
0.000000
 11
-16.673855
 21
-9.108519
 31
0.000000
  0
LINE
  8
1
 10
-16.673855
 20
-9.108519
 30
0.000000
 11
-16.651728
 21
-9.100266
 31
0.000000
  0
LINE
  8
1
 10
-16.651728
 20
-9.100266
 30
0.000000
 11
-16.631010
 21
-9.092331
 31
0.000000
  0
LINE
  8
1
 10
-16.631010
 20
-9.092331
 30
0.000000
 11
-16.611696
 21
-9.084741
 31
0.000000
  0
LINE
  8
1
 10
-16.611696
 20
-9.084741
 30
0.000000
 11
-16.593777
 21
-9.077517
 31
0.000000
  0
LINE
  8
1
 10
-16.593777
 20
-9.077517
 30
0.000000
 11
-16.577242
 21
-9.070683
 31
0.000000
  0
LINE
  8
1
 10
-16.577242
 20
-9.070683
 30
0.000000
 11
-16.562086
 21
-9.064263
 31
0.000000
  0
LINE
  8
1
 10
-16.562086
 20
-9.064263
 30
0.000000
 11
-16.548302
 21
-9.058283
 31
0.000000
  0
LINE
  8
1
 10
-16.548302
 20
-9.058283
 30
0.000000
 11
-16.535873
 21
-9.052762
 31
0.000000
  0
LINE
  8
1
 10
-16.535873
 20
-9.052762
 30
0.000000
 11
-16.524801
 21
-9.047727
 31
0.000000
  0
LINE
  8
1
 10
-16.524801
 20
-9.047727
 30
0.000000
 11
-16.515068
 21
-9.043198
 31
0.000000
  0
LINE
  8
1
 10
-16.515068
 20
-9.043198
 30
0.000000
 11
-16.506668
 21
-9.039200
 31
0.000000
  0
LINE
  8
1
 10
-16.506668
 20
-9.039200
 30
0.000000
 11
-16.499590
 21
-9.035755
 31
0.000000
  0
LINE
  8
1
 10
-16.499590
 20
-9.035755
 30
0.000000
 11
-16.493822
 21
-9.032887
 31
0.000000
  0
LINE
  8
1
 10
-16.493822
 20
-9.032887
 30
0.000000
 11
-16.489357
 21
-9.030617
 31
0.000000
  0
LINE
  8
1
 10
-16.489357
 20
-9.030617
 30
0.000000
 11
-16.486183
 21
-9.028968
 31
0.000000
  0
LINE
  8
1
 10
-16.486183
 20
-9.028968
 30
0.000000
 11
-16.483656
 21
-9.027622
 31
0.000000
  0
LINE
  8
1
 10
-16.483656
 20
-9.027622
 30
0.000000
 11
-15.348848
 21
-8.406120
 31
0.000000
  0
LINE
  8
1
 10
-15.348848
 20
-8.406120
 30
0.000000
 11
-14.157798
 21
-10.286242
 31
0.000000
  0
LINE
  8
1
 10
-14.157798
 20
-10.286242
 30
0.000000
 11
-15.204546
 21
-11.046749
 31
0.000000
  0
LINE
  8
1
 10
-15.204546
 20
-11.046749
 30
0.000000
 11
-15.206842
 21
-11.048458
 31
0.000000
  0
LINE
  8
1
 10
-15.206842
 20
-11.048458
 30
0.000000
 11
-15.209689
 21
-11.050625
 31
0.000000
  0
LINE
  8
1
 10
-15.209689
 20
-11.050625
 30
0.000000
 11
-15.213649
 21
-11.053692
 31
0.000000
  0
LINE
  8
1
 10
-15.213649
 20
-11.053692
 30
0.000000
 11
-15.218706
 21
-11.057680
 31
0.000000
  0
LINE
  8
1
 10
-15.218706
 20
-11.057680
 30
0.000000
 11
-15.224846
 21
-11.062609
 31
0.000000
  0
LINE
  8
1
 10
-15.224846
 20
-11.062609
 30
0.000000
 11
-15.232048
 21
-11.068495
 31
0.000000
  0
LINE
  8
1
 10
-15.232048
 20
-11.068495
 30
0.000000
 11
-15.240301
 21
-11.075360
 31
0.000000
  0
LINE
  8
1
 10
-15.240301
 20
-11.075360
 30
0.000000
 11
-15.249584
 21
-11.083220
 31
0.000000
  0
LINE
  8
1
 10
-15.249584
 20
-11.083220
 30
0.000000
 11
-15.259886
 21
-11.092098
 31
0.000000
  0
LINE
  8
1
 10
-15.259886
 20
-11.092098
 30
0.000000
 11
-15.271182
 21
-11.102006
 31
0.000000
  0
LINE
  8
1
 10
-15.271182
 20
-11.102006
 30
0.000000
 11
-15.283462
 21
-11.112967
 31
0.000000
  0
LINE
  8
1
 10
-15.283462
 20
-11.112967
 30
0.000000
 11
-15.296703
 21
-11.124997
 31
0.000000
  0
LINE
  8
1
 10
-15.296703
 20
-11.124997
 30
0.000000
 11
-15.310891
 21
-11.138113
 31
0.000000
  0
LINE
  8
1
 10
-15.310891
 20
-11.138113
 30
0.000000
 11
-15.326006
 21
-11.152333
 31
0.000000
  0
LINE
  8
1
 10
-15.326006
 20
-11.152333
 30
0.000000
 11
-15.342031
 21
-11.167675
 31
0.000000
  0
LINE
  8
1
 10
-15.342031
 20
-11.167675
 30
0.000000
 11
-15.358946
 21
-11.184155
 31
0.000000
  0
LINE
  8
1
 10
-15.358946
 20
-11.184155
 30
0.000000
 11
-15.376733
 21
-11.201788
 31
0.000000
  0
LINE
  8
1
 10
-15.376733
 20
-11.201788
 30
0.000000
 11
-15.395372
 21
-11.220592
 31
0.000000
  0
LINE
  8
1
 10
-15.395372
 20
-11.220592
 30
0.000000
 11
-15.414846
 21
-11.240585
 31
0.000000
  0
LINE
  8
1
 10
-15.414846
 20
-11.240585
 30
0.000000
 11
-15.435135
 21
-11.261780
 31
0.000000
  0
LINE
  8
1
 10
-15.435135
 20
-11.261780
 30
0.000000
 11
-15.456219
 21
-11.284194
 31
0.000000
  0
LINE
  8
1
 10
-15.456219
 20
-11.284194
 30
0.000000
 11
-15.478077
 21
-11.307841
 31
0.000000
  0
LINE
  8
1
 10
-15.478077
 20
-11.307841
 30
0.000000
 11
-15.500690
 21
-11.332739
 31
0.000000
  0
LINE
  8
1
 10
-15.500690
 20
-11.332739
 30
0.000000
 11
-15.524037
 21
-11.358899
 31
0.000000
  0
LINE
  8
1
 10
-15.524037
 20
-11.358899
 30
0.000000
 11
-15.548101
 21
-11.386339
 31
0.000000
  0
LINE
  8
1
 10
-15.548101
 20
-11.386339
 30
0.000000
 11
-15.572859
 21
-11.415073
 31
0.000000
  0
LINE
  8
1
 10
-15.572859
 20
-11.415073
 30
0.000000
 11
-15.598288
 21
-11.445113
 31
0.000000
  0
LINE
  8
1
 10
-15.598288
 20
-11.445113
 30
0.000000
 11
-15.624370
 21
-11.476476
 31
0.000000
  0
LINE
  8
1
 10
-15.624370
 20
-11.476476
 30
0.000000
 11
-15.651082
 21
-11.509171
 31
0.000000
  0
LINE
  8
1
 10
-15.651082
 20
-11.509171
 30
0.000000
 11
-15.678405
 21
-11.543217
 31
0.000000
  0
LINE
  8
1
 10
-15.678405
 20
-11.543217
 30
0.000000
 11
-15.706315
 21
-11.578622
 31
0.000000
  0
LINE
  8
1
 10
-15.706315
 20
-11.578622
 30
0.000000
 11
-15.734792
 21
-11.615401
 31
0.000000
  0
LINE
  8
1
 10
-15.734792
 20
-11.615401
 30
0.000000
 11
-15.763812
 21
-11.653567
 31
0.000000
  0
LINE
  8
1
 10
-15.763812
 20
-11.653567
 30
0.000000
 11
-15.793355
 21
-11.693131
 31
0.000000
  0
LINE
  8
1
 10
-15.793355
 20
-11.693131
 30
0.000000
 11
-15.823398
 21
-11.734106
 31
0.000000
  0
LINE
  8
1
 10
-15.823398
 20
-11.734106
 30
0.000000
 11
-15.853918
 21
-11.776504
 31
0.000000
  0
LINE
  8
1
 10
-15.853918
 20
-11.776504
 30
0.000000
 11
-15.884893
 21
-11.820334
 31
0.000000
  0
LINE
  8
1
 10
-15.884893
 20
-11.820334
 30
0.000000
 11
-15.916301
 21
-11.865610
 31
0.000000
  0
LINE
  8
1
 10
-15.916301
 20
-11.865610
 30
0.000000
 11
-15.948117
 21
-11.912340
 31
0.000000
  0
LINE
  8
1
 10
-15.948117
 20
-11.912340
 30
0.000000
 11
-15.980320
 21
-11.960537
 31
0.000000
  0
LINE
  8
1
 10
-15.980320
 20
-11.960537
 30
0.000000
 11
-16.012884
 21
-12.010209
 31
0.000000
  0
LINE
  8
1
 10
-16.012884
 20
-12.010209
 30
0.000000
 11
-16.045792
 21
-12.061369
 31
0.000000
  0
LINE
  8
1
 10
-16.045792
 20
-12.061369
 30
0.000000
 11
-16.079012
 21
-12.114022
 31
0.000000
  0
LINE
  8
1
 10
-16.079012
 20
-12.114022
 30
0.000000
 11
-16.112524
 21
-12.168181
 31
0.000000
  0
LINE
  8
1
 10
-16.112524
 20
-12.168181
 30
0.000000
 11
-16.146307
 21
-12.223855
 31
0.000000
  0
LINE
  8
1
 10
-16.146307
 20
-12.223855
 30
0.000000
 11
-16.180334
 21
-12.281052
 31
0.000000
  0
LINE
  8
1
 10
-16.180334
 20
-12.281052
 30
0.000000
 11
-16.214582
 21
-12.339778
 31
0.000000
  0
LINE
  8
1
 10
-16.214582
 20
-12.339778
 30
0.000000
 11
-16.249025
 21
-12.400044
 31
0.000000
  0
LINE
  8
1
 10
-16.249025
 20
-12.400044
 30
0.000000
 11
-16.283642
 21
-12.461857
 31
0.000000
  0
LINE
  8
1
 10
-16.283642
 20
-12.461857
 30
0.000000
 11
-16.318405
 21
-12.525225
 31
0.000000
  0
LINE
  8
1
 10
-16.318405
 20
-12.525225
 30
0.000000
 11
-16.353291
 21
-12.590155
 31
0.000000
  0
LINE
  8
1
 10
-16.353291
 20
-12.590155
 30
0.000000
 11
-16.388277
 21
-12.656652
 31
0.000000
  0
LINE
  8
1
 10
-16.388277
 20
-12.656652
 30
0.000000
 11
-16.423334
 21
-12.724726
 31
0.000000
  0
LINE
  8
1
 10
-16.423334
 20
-12.724726
 30
0.000000
 11
-16.458443
 21
-12.794380
 31
0.000000
  0
LINE
  8
1
 10
-16.458443
 20
-12.794380
 30
0.000000
 11
-16.493574
 21
-12.865623
 31
0.000000
  0
LINE
  8
1
 10
-16.493574
 20
-12.865623
 30
0.000000
 11
-16.528706
 21
-12.938457
 31
0.000000
  0
LINE
  8
1
 10
-16.528706
 20
-12.938457
 30
0.000000
 11
-16.563808
 21
-13.012890
 31
0.000000
  0
LINE
  8
1
 10
-16.563808
 20
-13.012890
 30
0.000000
 11
-16.598860
 21
-13.088926
 31
0.000000
  0
LINE
  8
1
 10
-16.598860
 20
-13.088926
 30
0.000000
 11
-16.633837
 21
-13.166572
 31
0.000000
  0
LINE
  8
1
 10
-16.633837
 20
-13.166572
 30
0.000000
 11
-16.668709
 21
-13.245829
 31
0.000000
  0
LINE
  8
1
 10
-16.668709
 20
-13.245829
 30
0.000000
 11
-16.703453
 21
-13.326700
 31
0.000000
  0
LINE
  8
1
 10
-16.703453
 20
-13.326700
 30
0.000000
 11
-16.738045
 21
-13.409194
 31
0.000000
  0
LINE
  8
1
 10
-16.738045
 20
-13.409194
 30
0.000000
 11
-16.772455
 21
-13.493310
 31
0.000000
  0
LINE
  8
1
 10
-16.772455
 20
-13.493310
 30
0.000000
 11
-16.806662
 21
-13.579052
 31
0.000000
  0
LINE
  8
1
 10
-16.806662
 20
-13.579052
 30
0.000000
 11
-16.840639
 21
-13.666425
 31
0.000000
  0
LINE
  8
1
 10
-16.840639
 20
-13.666425
 30
0.000000
 11
-16.874357
 21
-13.755428
 31
0.000000
  0
LINE
  8
1
 10
-16.874357
 20
-13.755428
 30
0.000000
 11
-16.907795
 21
-13.846065
 31
0.000000
  0
LINE
  8
1
 10
-16.907795
 20
-13.846065
 30
0.000000
 11
-16.940922
 21
-13.938337
 31
0.000000
  0
LINE
  8
1
 10
-16.940922
 20
-13.938337
 30
0.000000
 11
-16.964867
 21
-14.006904
 31
0.000000
  0
LINE
  8
1
 10
-16.964867
 20
-14.006904
 30
0.000000
 11
-16.046837
 21
-15.049885
 31
0.000000
  0
LINE
  8
1
 10
-16.046837
 20
-15.049885
 30
0.000000
 11
-15.975787
 21
-15.034837
 31
0.000000
  0
LINE
  8
1
 10
-15.975787
 20
-15.034837
 30
0.000000
 11
-15.880056
 21
-15.013688
 31
0.000000
  0
LINE
  8
1
 10
-15.880056
 20
-15.013688
 30
0.000000
 11
-15.785909
 21
-14.992025
 31
0.000000
  0
LINE
  8
1
 10
-15.785909
 20
-14.992025
 30
0.000000
 11
-15.693345
 21
-14.969876
 31
0.000000
  0
LINE
  8
1
 10
-15.693345
 20
-14.969876
 30
0.000000
 11
-15.602367
 21
-14.947264
 31
0.000000
  0
LINE
  8
1
 10
-15.602367
 20
-14.947264
 30
0.000000
 11
-15.512977
 21
-14.924216
 31
0.000000
  0
LINE
  8
1
 10
-15.512977
 20
-14.924216
 30
0.000000
 11
-15.425173
 21
-14.900759
 31
0.000000
  0
LINE
  8
1
 10
-15.425173
 20
-14.900759
 30
0.000000
 11
-15.338957
 21
-14.876918
 31
0.000000
  0
LINE
  8
1
 10
-15.338957
 20
-14.876918
 30
0.000000
 11
-15.254329
 21
-14.852719
 31
0.000000
  0
LINE
  8
1
 10
-15.254329
 20
-14.852719
 30
0.000000
 11
-15.171287
 21
-14.828188
 31
0.000000
  0
LINE
  8
1
 10
-15.171287
 20
-14.828188
 30
0.000000
 11
-15.089830
 21
-14.803350
 31
0.000000
  0
LINE
  8
1
 10
-15.089830
 20
-14.803350
 30
0.000000
 11
-15.009960
 21
-14.778232
 31
0.000000
  0
LINE
  8
1
 10
-15.009960
 20
-14.778232
 30
0.000000
 11
-14.931674
 21
-14.752860
 31
0.000000
  0
LINE
  8
1
 10
-14.931674
 20
-14.752860
 30
0.000000
 11
-14.854970
 21
-14.727259
 31
0.000000
  0
LINE
  8
1
 10
-14.854970
 20
-14.727259
 30
0.000000
 11
-14.779844
 21
-14.701453
 31
0.000000
  0
LINE
  8
1
 10
-14.779844
 20
-14.701453
 30
0.000000
 11
-14.706297
 21
-14.675469
 31
0.000000
  0
LINE
  8
1
 10
-14.706297
 20
-14.675469
 30
0.000000
 11
-14.634325
 21
-14.649335
 31
0.000000
  0
LINE
  8
1
 10
-14.634325
 20
-14.649335
 30
0.000000
 11
-14.563925
 21
-14.623073
 31
0.000000
  0
LINE
  8
1
 10
-14.563925
 20
-14.623073
 30
0.000000
 11
-14.495091
 21
-14.596708
 31
0.000000
  0
LINE
  8
1
 10
-14.495091
 20
-14.596708
 30
0.000000
 11
-14.427824
 21
-14.570269
 31
0.000000
  0
LINE
  8
1
 10
-14.427824
 20
-14.570269
 30
0.000000
 11
-14.362119
 21
-14.543779
 31
0.000000
  0
LINE
  8
1
 10
-14.362119
 20
-14.543779
 30
0.000000
 11
-14.297968
 21
-14.517262
 31
0.000000
  0
LINE
  8
1
 10
-14.297968
 20
-14.517262
 30
0.000000
 11
-14.235369
 21
-14.490746
 31
0.000000
  0
LINE
  8
1
 10
-14.235369
 20
-14.490746
 30
0.000000
 11
-14.174316
 21
-14.464253
 31
0.000000
  0
LINE
  8
1
 10
-14.174316
 20
-14.464253
 30
0.000000
 11
-14.114805
 21
-14.437810
 31
0.000000
  0
LINE
  8
1
 10
-14.114805
 20
-14.437810
 30
0.000000
 11
-14.056830
 21
-14.411442
 31
0.000000
  0
LINE
  8
1
 10
-14.056830
 20
-14.411442
 30
0.000000
 11
-14.000386
 21
-14.385173
 31
0.000000
  0
LINE
  8
1
 10
-14.000386
 20
-14.385173
 30
0.000000
 11
-13.945464
 21
-14.359027
 31
0.000000
  0
LINE
  8
1
 10
-13.945464
 20
-14.359027
 30
0.000000
 11
-13.892061
 21
-14.333030
 31
0.000000
  0
LINE
  8
1
 10
-13.892061
 20
-14.333030
 30
0.000000
 11
-13.840166
 21
-14.307204
 31
0.000000
  0
LINE
  8
1
 10
-13.840166
 20
-14.307204
 30
0.000000
 11
-13.789776
 21
-14.281576
 31
0.000000
  0
LINE
  8
1
 10
-13.789776
 20
-14.281576
 30
0.000000
 11
-13.740880
 21
-14.256169
 31
0.000000
  0
LINE
  8
1
 10
-13.740880
 20
-14.256169
 30
0.000000
 11
-13.693472
 21
-14.231008
 31
0.000000
  0
LINE
  8
1
 10
-13.693472
 20
-14.231008
 30
0.000000
 11
-13.647544
 21
-14.206115
 31
0.000000
  0
LINE
  8
1
 10
-13.647544
 20
-14.206115
 30
0.000000
 11
-13.603087
 21
-14.181516
 31
0.000000
  0
LINE
  8
1
 10
-13.603087
 20
-14.181516
 30
0.000000
 11
-13.560094
 21
-14.157234
 31
0.000000
  0
LINE
  8
1
 10
-13.560094
 20
-14.157234
 30
0.000000
 11
-13.518554
 21
-14.133292
 31
0.000000
  0
LINE
  8
1
 10
-13.518554
 20
-14.133292
 30
0.000000
 11
-13.478456
 21
-14.109714
 31
0.000000
  0
LINE
  8
1
 10
-13.478456
 20
-14.109714
 30
0.000000
 11
-13.439795
 21
-14.086523
 31
0.000000
  0
LINE
  8
1
 10
-13.439795
 20
-14.086523
 30
0.000000
 11
-13.402557
 21
-14.063742
 31
0.000000
  0
LINE
  8
1
 10
-13.402557
 20
-14.063742
 30
0.000000
 11
-13.366735
 21
-14.041396
 31
0.000000
  0
LINE
  8
1
 10
-13.366735
 20
-14.041396
 30
0.000000
 11
-13.332316
 21
-14.019505
 31
0.000000
  0
LINE
  8
1
 10
-13.332316
 20
-14.019505
 30
0.000000
 11
-13.299293
 21
-13.998095
 31
0.000000
  0
LINE
  8
1
 10
-13.299293
 20
-13.998095
 30
0.000000
 11
-13.267649
 21
-13.977184
 31
0.000000
  0
LINE
  8
1
 10
-13.267649
 20
-13.977184
 30
0.000000
 11
-13.237376
 21
-13.956799
 31
0.000000
  0
LINE
  8
1
 10
-13.237376
 20
-13.956799
 30
0.000000
 11
-13.208464
 21
-13.936959
 31
0.000000
  0
LINE
  8
1
 10
-13.208464
 20
-13.936959
 30
0.000000
 11
-13.180898
 21
-13.917689
 31
0.000000
  0
LINE
  8
1
 10
-13.180898
 20
-13.917689
 30
0.000000
 11
-13.154667
 21
-13.899009
 31
0.000000
  0
LINE
  8
1
 10
-13.154667
 20
-13.899009
 30
0.000000
 11
-13.129759
 21
-13.880940
 31
0.000000
  0
LINE
  8
1
 10
-13.129759
 20
-13.880940
 30
0.000000
 11
-13.106160
 21
-13.863506
 31
0.000000
  0
LINE
  8
1
 10
-13.106160
 20
-13.863506
 30
0.000000
 11
-13.083858
 21
-13.846727
 31
0.000000
  0
LINE
  8
1
 10
-13.083858
 20
-13.846727
 30
0.000000
 11
-13.062840
 21
-13.830626
 31
0.000000
  0
LINE
  8
1
 10
-13.062840
 20
-13.830626
 30
0.000000
 11
-13.043091
 21
-13.815220
 31
0.000000
  0
LINE
  8
1
 10
-13.043091
 20
-13.815220
 30
0.000000
 11
-13.024597
 21
-13.800533
 31
0.000000
  0
LINE
  8
1
 10
-13.024597
 20
-13.800533
 30
0.000000
 11
-13.007346
 21
-13.786586
 31
0.000000
  0
LINE
  8
1
 10
-13.007346
 20
-13.786586
 30
0.000000
 11
-12.991323
 21
-13.773398
 31
0.000000
  0
LINE
  8
1
 10
-12.991323
 20
-13.773398
 30
0.000000
 11
-12.976512
 21
-13.760990
 31
0.000000
  0
LINE
  8
1
 10
-12.976512
 20
-13.760990
 30
0.000000
 11
-12.962898
 21
-13.749381
 31
0.000000
  0
LINE
  8
1
 10
-12.962898
 20
-13.749381
 30
0.000000
 11
-12.950468
 21
-13.738593
 31
0.000000
  0
LINE
  8
1
 10
-12.950468
 20
-13.738593
 30
0.000000
 11
-12.939206
 21
-13.728645
 31
0.000000
  0
LINE
  8
1
 10
-12.939206
 20
-13.728645
 30
0.000000
 11
-12.929092
 21
-13.719554
 31
0.000000
  0
LINE
  8
1
 10
-12.929092
 20
-13.719554
 30
0.000000
 11
-12.920117
 21
-13.711344
 31
0.000000
  0
LINE
  8
1
 10
-12.920117
 20
-13.711344
 30
0.000000
 11
-12.912261
 21
-13.704029
 31
0.000000
  0
LINE
  8
1
 10
-12.912261
 20
-13.704029
 30
0.000000
 11
-12.905508
 21
-13.697632
 31
0.000000
  0
LINE
  8
1
 10
-12.905508
 20
-13.697632
 30
0.000000
 11
-12.899839
 21
-13.692167
 31
0.000000
  0
LINE
  8
1
 10
-12.899839
 20
-13.692167
 30
0.000000
 11
-12.895242
 21
-13.687657
 31
0.000000
  0
LINE
  8
1
 10
-12.895242
 20
-13.687657
 30
0.000000
 11
-12.891697
 21
-13.684118
 31
0.000000
  0
LINE
  8
1
 10
-12.891697
 20
-13.684118
 30
0.000000
 11
-12.889187
 21
-13.681570
 31
0.000000
  0
LINE
  8
1
 10
-12.889187
 20
-13.681570
 30
0.000000
 11
-12.887199
 21
-13.679509
 31
0.000000
  0
LINE
  8
1
 10
-12.887199
 20
-13.679509
 30
0.000000
 11
-11.999988
 21
-12.737751
 31
0.000000
  0
LINE
  8
1
 10
-11.999988
 20
-12.737751
 30
0.000000
 11
-10.286242
 21
-14.157798
 31
0.000000
  0
LINE
  8
1
 10
-10.286242
 20
-14.157798
 30
0.000000
 11
-11.046749
 21
-15.204546
 31
0.000000
  0
LINE
  8
1
 10
-11.046749
 20
-15.204546
 30
0.000000
 11
-11.048405
 21
-15.206882
 31
0.000000
  0
LINE
  8
1
 10
-11.048405
 20
-15.206882
 30
0.000000
 11
-11.050443
 21
-15.209821
 31
0.000000
  0
LINE
  8
1
 10
-11.050443
 20
-15.209821
 30
0.000000
 11
-11.053261
 21
-15.213963
 31
0.000000
  0
LINE
  8
1
 10
-11.053261
 20
-15.213963
 30
0.000000
 11
-11.056838
 21
-15.219317
 31
0.000000
  0
LINE
  8
1
 10
-11.056838
 20
-15.219317
 30
0.000000
 11
-11.061154
 21
-15.225903
 31
0.000000
  0
LINE
  8
1
 10
-11.061154
 20
-15.225903
 30
0.000000
 11
-11.066185
 21
-15.233727
 31
0.000000
  0
LINE
  8
1
 10
-11.066185
 20
-15.233727
 30
0.000000
 11
-11.071913
 21
-15.242805
 31
0.000000
  0
LINE
  8
1
 10
-11.071913
 20
-15.242805
 30
0.000000
 11
-11.078313
 21
-15.253150
 31
0.000000
  0
LINE
  8
1
 10
-11.078313
 20
-15.253150
 30
0.000000
 11
-11.085366
 21
-15.264776
 31
0.000000
  0
LINE
  8
1
 10
-11.085366
 20
-15.264776
 30
0.000000
 11
-11.093048
 21
-15.277691
 31
0.000000
  0
LINE
  8
1
 10
-11.093048
 20
-15.277691
 30
0.000000
 11
-11.101339
 21
-15.291909
 31
0.000000
  0
LINE
  8
1
 10
-11.101339
 20
-15.291909
 30
0.000000
 11
-11.110216
 21
-15.307443
 31
0.000000
  0
LINE
  8
1
 10
-11.110216
 20
-15.307443
 30
0.000000
 11
-11.119657
 21
-15.324301
 31
0.000000
  0
LINE
  8
1
 10
-11.119657
 20
-15.324301
 30
0.000000
 11
-11.129637
 21
-15.342496
 31
0.000000
  0
LINE
  8
1
 10
-11.129637
 20
-15.342496
 30
0.000000
 11
-11.140137
 21
-15.362039
 31
0.000000
  0
LINE
  8
1
 10
-11.140137
 20
-15.362039
 30
0.000000
 11
-11.151132
 21
-15.382938
 31
0.000000
  0
LINE
  8
1
 10
-11.151132
 20
-15.382938
 30
0.000000
 11
-11.162599
 21
-15.405206
 31
0.000000
  0
LINE
  8
1
 10
-11.162599
 20
-15.405206
 30
0.000000
 11
-11.174515
 21
-15.428850
 31
0.000000
  0
LINE
  8
1
 10
-11.174515
 20
-15.428850
 30
0.000000
 11
-11.186858
 21
-15.453881
 31
0.000000
  0
LINE
  8
1
 10
-11.186858
 20
-15.453881
 30
0.000000
 11
-11.199604
 21
-15.480309
 31
0.000000
  0
LINE
  8
1
 10
-11.199604
 20
-15.480309
 30
0.000000
 11
-11.212729
 21
-15.508141
 31
0.000000
  0
LINE
  8
1
 10
-11.212729
 20
-15.508141
 30
0.000000
 11
-11.226211
 21
-15.537385
 31
0.000000
  0
LINE
  8
1
 10
-11.226211
 20
-15.537385
 30
0.000000
 11
-11.240023
 21
-15.568051
 31
0.000000
  0
LINE
  8
1
 10
-11.240023
 20
-15.568051
 30
0.000000
 11
-11.254144
 21
-15.600146
 31
0.000000
  0
LINE
  8
1
 10
-11.254144
 20
-15.600146
 30
0.000000
 11
-11.268550
 21
-15.633680
 31
0.000000
  0
LINE
  8
1
 10
-11.268550
 20
-15.633680
 30
0.000000
 11
-11.283216
 21
-15.668658
 31
0.000000
  0
LINE
  8
1
 10
-11.283216
 20
-15.668658
 30
0.000000
 11
-11.298118
 21
-15.705086
 31
0.000000
  0
LINE
  8
1
 10
-11.298118
 20
-15.705086
 30
0.000000
 11
-11.313232
 21
-15.742972
 31
0.000000
  0
LINE
  8
1
 10
-11.313232
 20
-15.742972
 30
0.000000
 11
-11.328533
 21
-15.782323
 31
0.000000
  0
LINE
  8
1
 10
-11.328533
 20
-15.782323
 30
0.000000
 11
-11.343999
 21
-15.823145
 31
0.000000
  0
LINE
  8
1
 10
-11.343999
 20
-15.823145
 30
0.000000
 11
-11.359602
 21
-15.865442
 31
0.000000
  0
LINE
  8
1
 10
-11.359602
 20
-15.865442
 30
0.000000
 11
-11.375319
 21
-15.909222
 31
0.000000
  0
LINE
  8
1
 10
-11.375319
 20
-15.909222
 30
0.000000
 11
-11.391126
 21
-15.954488
 31
0.000000
  0
LINE
  8
1
 10
-11.391126
 20
-15.954488
 30
0.000000
 11
-11.406996
 21
-16.001244
 31
0.000000
  0
LINE
  8
1
 10
-11.406996
 20
-16.001244
 30
0.000000
 11
-11.422907
 21
-16.049498
 31
0.000000
  0
LINE
  8
1
 10
-11.422907
 20
-16.049498
 30
0.000000
 11
-11.438831
 21
-16.099251
 31
0.000000
  0
LINE
  8
1
 10
-11.438831
 20
-16.099251
 30
0.000000
 11
-11.454747
 21
-16.150509
 31
0.000000
  0
LINE
  8
1
 10
-11.454747
 20
-16.150509
 30
0.000000
 11
-11.470626
 21
-16.203274
 31
0.000000
  0
LINE
  8
1
 10
-11.470626
 20
-16.203274
 30
0.000000
 11
-11.486444
 21
-16.257549
 31
0.000000
  0
LINE
  8
1
 10
-11.486444
 20
-16.257549
 30
0.000000
 11
-11.502178
 21
-16.313337
 31
0.000000
  0
LINE
  8
1
 10
-11.502178
 20
-16.313337
 30
0.000000
 11
-11.517799
 21
-16.370642
 31
0.000000
  0
LINE
  8
1
 10
-11.517799
 20
-16.370642
 30
0.000000
 11
-11.533286
 21
-16.429466
 31
0.000000
  0
LINE
  8
1
 10
-11.533286
 20
-16.429466
 30
0.000000
 11
-11.548610
 21
-16.489809
 31
0.000000
  0
LINE
  8
1
 10
-11.548610
 20
-16.489809
 30
0.000000
 11
-11.563746
 21
-16.551672
 31
0.000000
  0
LINE
  8
1
 10
-11.563746
 20
-16.551672
 30
0.000000
 11
-11.578671
 21
-16.615061
 31
0.000000
  0
LINE
  8
1
 10
-11.578671
 20
-16.615061
 30
0.000000
 11
-11.593359
 21
-16.679972
 31
0.000000
  0
LINE
  8
1
 10
-11.593359
 20
-16.679972
 30
0.000000
 11
-11.607782
 21
-16.746408
 31
0.000000
  0
LINE
  8
1
 10
-11.607782
 20
-16.746408
 30
0.000000
 11
-11.621917
 21
-16.814369
 31
0.000000
  0
LINE
  8
1
 10
-11.621917
 20
-16.814369
 30
0.000000
 11
-11.635736
 21
-16.883852
 31
0.000000
  0
LINE
  8
1
 10
-11.635736
 20
-16.883852
 30
0.000000
 11
-11.649217
 21
-16.954861
 31
0.000000
  0
LINE
  8
1
 10
-11.649217
 20
-16.954861
 30
0.000000
 11
-11.662333
 21
-17.027393
 31
0.000000
  0
LINE
  8
1
 10
-11.662333
 20
-17.027393
 30
0.000000
 11
-11.675056
 21
-17.101448
 31
0.000000
  0
LINE
  8
1
 10
-11.675056
 20
-17.101448
 30
0.000000
 11
-11.687363
 21
-17.177023
 31
0.000000
  0
LINE
  8
1
 10
-11.687363
 20
-17.177023
 30
0.000000
 11
-11.699228
 21
-17.254118
 31
0.000000
  0
LINE
  8
1
 10
-11.699228
 20
-17.254118
 30
0.000000
 11
-11.710626
 21
-17.332729
 31
0.000000
  0
LINE
  8
1
 10
-11.710626
 20
-17.332729
 30
0.000000
 11
-11.721529
 21
-17.412855
 31
0.000000
  0
LINE
  8
1
 10
-11.721529
 20
-17.412855
 30
0.000000
 11
-11.731913
 21
-17.494492
 31
0.000000
  0
LINE
  8
1
 10
-11.731913
 20
-17.494492
 30
0.000000
 11
-11.741754
 21
-17.577639
 31
0.000000
  0
LINE
  8
1
 10
-11.741754
 20
-17.577639
 30
0.000000
 11
-11.751023
 21
-17.662292
 31
0.000000
  0
LINE
  8
1
 10
-11.751023
 20
-17.662292
 30
0.000000
 11
-11.759698
 21
-17.748446
 31
0.000000
  0
LINE
  8
1
 10
-11.759698
 20
-17.748446
 30
0.000000
 11
-11.767750
 21
-17.836096
 31
0.000000
  0
LINE
  8
1
 10
-11.767750
 20
-17.836096
 30
0.000000
 11
-11.775157
 21
-17.925241
 31
0.000000
  0
LINE
  8
1
 10
-11.775157
 20
-17.925241
 30
0.000000
 11
-11.781891
 21
-18.015875
 31
0.000000
  0
LINE
  8
1
 10
-11.781891
 20
-18.015875
 30
0.000000
 11
-11.787927
 21
-18.107990
 31
0.000000
  0
LINE
  8
1
 10
-11.787927
 20
-18.107990
 30
0.000000
 11
-11.793242
 21
-18.201586
 31
0.000000
  0
LINE
  8
1
 10
-11.793242
 20
-18.201586
 30
0.000000
 11
-11.797806
 21
-18.296652
 31
0.000000
  0
LINE
  8
1
 10
-11.797806
 20
-18.296652
 30
0.000000
 11
-11.801598
 21
-18.393187
 31
0.000000
  0
LINE
  8
1
 10
-11.801598
 20
-18.393187
 30
0.000000
 11
-11.804591
 21
-18.491180
 31
0.000000
  0
LINE
  8
1
 10
-11.804591
 20
-18.491180
 30
0.000000
 11
-11.806175
 21
-18.563789
 31
0.000000
  0
LINE
  8
1
 10
-11.806175
 20
-18.563789
 30
0.000000
 11
-10.610780
 21
-19.272036
 31
0.000000
  0
LINE
  8
1
 10
-10.610780
 20
-19.272036
 30
0.000000
 11
-10.547856
 21
-19.235769
 31
0.000000
  0
LINE
  8
1
 10
-10.547856
 20
-19.235769
 30
0.000000
 11
-10.463346
 21
-19.186073
 31
0.000000
  0
LINE
  8
1
 10
-10.463346
 20
-19.186073
 30
0.000000
 11
-10.380501
 21
-19.136377
 31
0.000000
  0
LINE
  8
1
 10
-10.380501
 20
-19.136377
 30
0.000000
 11
-10.299313
 21
-19.086708
 31
0.000000
  0
LINE
  8
1
 10
-10.299313
 20
-19.086708
 30
0.000000
 11
-10.219775
 21
-19.037088
 31
0.000000
  0
LINE
  8
1
 10
-10.219775
 20
-19.037088
 30
0.000000
 11
-10.141881
 21
-18.987547
 31
0.000000
  0
LINE
  8
1
 10
-10.141881
 20
-18.987547
 30
0.000000
 11
-10.065624
 21
-18.938105
 31
0.000000
  0
LINE
  8
1
 10
-10.065624
 20
-18.938105
 30
0.000000
 11
-9.990994
 21
-18.888788
 31
0.000000
  0
LINE
  8
1
 10
-9.990994
 20
-18.888788
 30
0.000000
 11
-9.917986
 21
-18.839622
 31
0.000000
  0
LINE
  8
1
 10
-9.917986
 20
-18.839622
 30
0.000000
 11
-9.846589
 21
-18.790630
 31
0.000000
  0
LINE
  8
1
 10
-9.846589
 20
-18.790630
 30
0.000000
 11
-9.776795
 21
-18.741837
 31
0.000000
  0
LINE
  8
1
 10
-9.776795
 20
-18.741837
 30
0.000000
 11
-9.708596
 21
-18.693266
 31
0.000000
  0
LINE
  8
1
 10
-9.708596
 20
-18.693266
 30
0.000000
 11
-9.641982
 21
-18.644945
 31
0.000000
  0
LINE
  8
1
 10
-9.641982
 20
-18.644945
 30
0.000000
 11
-9.576942
 21
-18.596893
 31
0.000000
  0
LINE
  8
1
 10
-9.576942
 20
-18.596893
 30
0.000000
 11
-9.513469
 21
-18.549135
 31
0.000000
  0
LINE
  8
1
 10
-9.513469
 20
-18.549135
 30
0.000000
 11
-9.451550
 21
-18.501696
 31
0.000000
  0
LINE
  8
1
 10
-9.451550
 20
-18.501696
 30
0.000000
 11
-9.391177
 21
-18.454599
 31
0.000000
  0
LINE
  8
1
 10
-9.391177
 20
-18.454599
 30
0.000000
 11
-9.332337
 21
-18.407867
 31
0.000000
  0
LINE
  8
1
 10
-9.332337
 20
-18.407867
 30
0.000000
 11
-9.275021
 21
-18.361525
 31
0.000000
  0
LINE
  8
1
 10
-9.275021
 20
-18.361525
 30
0.000000
 11
-9.219216
 21
-18.315592
 31
0.000000
  0
LINE
  8
1
 10
-9.219216
 20
-18.315592
 30
0.000000
 11
-9.164911
 21
-18.270094
 31
0.000000
  0
LINE
  8
1
 10
-9.164911
 20
-18.270094
 30
0.000000
 11
-9.112095
 21
-18.225052
 31
0.000000
  0
LINE
  8
1
 10
-9.112095
 20
-18.225052
 30
0.000000
 11
-9.060754
 21
-18.180489
 31
0.000000
  0
LINE
  8
1
 10
-9.060754
 20
-18.180489
 30
0.000000
 11
-9.010876
 21
-18.136427
 31
0.000000
  0
LINE
  8
1
 10
-9.010876
 20
-18.136427
 30
0.000000
 11
-8.962449
 21
-18.092888
 31
0.000000
  0
LINE
  8
1
 10
-8.962449
 20
-18.092888
 30
0.000000
 11
-8.915461
 21
-18.049894
 31
0.000000
  0
LINE
  8
1
 10
-8.915461
 20
-18.049894
 30
0.000000
 11
-8.869896
 21
-18.007469
 31
0.000000
  0
LINE
  8
1
 10
-8.869896
 20
-18.007469
 30
0.000000
 11
-8.825742
 21
-17.965631
 31
0.000000
  0
LINE
  8
1
 10
-8.825742
 20
-17.965631
 30
0.000000
 11
-8.782986
 21
-17.924404
 31
0.000000
  0
LINE
  8
1
 10
-8.782986
 20
-17.924404
 30
0.000000
 11
-8.741611
 21
-17.883806
 31
0.000000
  0
LINE
  8
1
 10
-8.741611
 20
-17.883806
 30
0.000000
 11
-8.701607
 21
-17.843861
 31
0.000000
  0
LINE
  8
1
 10
-8.701607
 20
-17.843861
 30
0.000000
 11
-8.662955
 21
-17.804588
 31
0.000000
  0
LINE
  8
1
 10
-8.662955
 20
-17.804588
 30
0.000000
 11
-8.625643
 21
-17.766008
 31
0.000000
  0
LINE
  8
1
 10
-8.625643
 20
-17.766008
 30
0.000000
 11
-8.589655
 21
-17.728142
 31
0.000000
  0
LINE
  8
1
 10
-8.589655
 20
-17.728142
 30
0.000000
 11
-8.554976
 21
-17.691008
 31
0.000000
  0
LINE
  8
1
 10
-8.554976
 20
-17.691008
 30
0.000000
 11
-8.521590
 21
-17.654629
 31
0.000000
  0
LINE
  8
1
 10
-8.521590
 20
-17.654629
 30
0.000000
 11
-8.489481
 21
-17.619022
 31
0.000000
  0
LINE
  8
1
 10
-8.489481
 20
-17.619022
 30
0.000000
 11
-8.458633
 21
-17.584208
 31
0.000000
  0
LINE
  8
1
 10
-8.458633
 20
-17.584208
 30
0.000000
 11
-8.429030
 21
-17.550205
 31
0.000000
  0
LINE
  8
1
 10
-8.429030
 20
-17.550205
 30
0.000000
 11
-8.400655
 21
-17.517031
 31
0.000000
  0
LINE
  8
1
 10
-8.400655
 20
-17.517031
 30
0.000000
 11
-8.373491
 21
-17.484709
 31
0.000000
  0
LINE
  8
1
 10
-8.373491
 20
-17.484709
 30
0.000000
 11
-8.347522
 21
-17.453253
 31
0.000000
  0
LINE
  8
1
 10
-8.347522
 20
-17.453253
 30
0.000000
 11
-8.322730
 21
-17.422686
 31
0.000000
  0
LINE
  8
1
 10
-8.322730
 20
-17.422686
 30
0.000000
 11
-8.299097
 21
-17.393021
 31
0.000000
  0
LINE
  8
1
 10
-8.299097
 20
-17.393021
 30
0.000000
 11
-8.276606
 21
-17.364277
 31
0.000000
  0
LINE
  8
1
 10
-8.276606
 20
-17.364277
 30
0.000000
 11
-8.255239
 21
-17.336475
 31
0.000000
  0
LINE
  8
1
 10
-8.255239
 20
-17.336475
 30
0.000000
 11
-8.234977
 21
-17.309629
 31
0.000000
  0
LINE
  8
1
 10
-8.234977
 20
-17.309629
 30
0.000000
 11
-8.215802
 21
-17.283758
 31
0.000000
  0
LINE
  8
1
 10
-8.215802
 20
-17.283758
 30
0.000000
 11
-8.197696
 21
-17.258877
 31
0.000000
  0
LINE
  8
1
 10
-8.197696
 20
-17.258877
 30
0.000000
 11
-8.180640
 21
-17.235004
 31
0.000000
  0
LINE
  8
1
 10
-8.180640
 20
-17.235004
 30
0.000000
 11
-8.164615
 21
-17.212154
 31
0.000000
  0
LINE
  8
1
 10
-8.164615
 20
-17.212154
 30
0.000000
 11
-8.149601
 21
-17.190346
 31
0.000000
  0
LINE
  8
1
 10
-8.149601
 20
-17.190346
 30
0.000000
 11
-8.135578
 21
-17.169592
 31
0.000000
  0
LINE
  8
1
 10
-8.135578
 20
-17.169592
 30
0.000000
 11
-8.122529
 21
-17.149910
 31
0.000000
  0
LINE
  8
1
 10
-8.122529
 20
-17.149910
 30
0.000000
 11
-8.110432
 21
-17.131313
 31
0.000000
  0
LINE
  8
1
 10
-8.110432
 20
-17.131313
 30
0.000000
 11
-8.099268
 21
-17.113819
 31
0.000000
  0
LINE
  8
1
 10
-8.099268
 20
-17.113819
 30
0.000000
 11
-8.089017
 21
-17.097441
 31
0.000000
  0
LINE
  8
1
 10
-8.089017
 20
-17.097441
 30
0.000000
 11
-8.079657
 21
-17.082195
 31
0.000000
  0
LINE
  8
1
 10
-8.079657
 20
-17.082195
 30
0.000000
 11
-8.071168
 21
-17.068092
 31
0.000000
  0
LINE
  8
1
 10
-8.071168
 20
-17.068092
 30
0.000000
 11
-8.063532
 21
-17.055151
 31
0.000000
  0
LINE
  8
1
 10
-8.063532
 20
-17.055151
 30
0.000000
 11
-8.056723
 21
-17.043381
 31
0.000000
  0
LINE
  8
1
 10
-8.056723
 20
-17.043381
 30
0.000000
 11
-8.050724
 21
-17.032799
 31
0.000000
  0
LINE
  8
1
 10
-8.050724
 20
-17.032799
 30
0.000000
 11
-8.045512
 21
-17.023415
 31
0.000000
  0
LINE
  8
1
 10
-8.045512
 20
-17.023415
 30
0.000000
 11
-8.041067
 21
-17.015244
 31
0.000000
  0
LINE
  8
1
 10
-8.041067
 20
-17.015244
 30
0.000000
 11
-8.037365
 21
-17.008295
 31
0.000000
  0
LINE
  8
1
 10
-8.037365
 20
-17.008295
 30
0.000000
 11
-8.034386
 21
-17.002584
 31
0.000000
  0
LINE
  8
1
 10
-8.034386
 20
-17.002584
 30
0.000000
 11
-8.032107
 21
-16.998123
 31
0.000000
  0
LINE
  8
1
 10
-8.032107
 20
-16.998123
 30
0.000000
 11
-8.030508
 21
-16.994923
 31
0.000000
  0
LINE
  8
1
 10
-8.030508
 20
-16.994923
 30
0.000000
 11
-8.029255
 21
-16.992350
 31
0.000000
  0
LINE
  8
1
 10
-8.029255
 20
-16.992350
 30
0.000000
 11
-7.476485
 21
-15.822521
 31
0.000000
  0
LINE
  8
1
 10
-7.476485
 20
-15.822521
 30
0.000000
 11
-5.407797
 21
-16.643490
 31
0.000000
  0
LINE
  8
1
 10
-5.407797
 20
-16.643490
 30
0.000000
 11
-5.807620
 21
-17.874016
 31
0.000000
  0
LINE
  8
1
 10
-5.807620
 20
-17.874016
 30
0.000000
 11
-5.808473
 21
-17.876749
 31
0.000000
  0
LINE
  8
1
 10
-5.808473
 20
-17.876749
 30
0.000000
 11
-5.809503
 21
-17.880175
 31
0.000000
  0
LINE
  8
1
 10
-5.809503
 20
-17.880175
 30
0.000000
 11
-5.810904
 21
-17.884983
 31
0.000000
  0
LINE
  8
1
 10
-5.810904
 20
-17.884983
 30
0.000000
 11
-5.812651
 21
-17.891182
 31
0.000000
  0
LINE
  8
1
 10
-5.812651
 20
-17.891182
 30
0.000000
 11
-5.814721
 21
-17.898779
 31
0.000000
  0
LINE
  8
1
 10
-5.814721
 20
-17.898779
 30
0.000000
 11
-5.817088
 21
-17.907774
 31
0.000000
  0
LINE
  8
1
 10
-5.817088
 20
-17.907774
 30
0.000000
 11
-5.819729
 21
-17.918179
 31
0.000000
  0
LINE
  8
1
 10
-5.819729
 20
-17.918179
 30
0.000000
 11
-5.822619
 21
-17.929995
 31
0.000000
  0
LINE
  8
1
 10
-5.822619
 20
-17.929995
 30
0.000000
 11
-5.825735
 21
-17.943232
 31
0.000000
  0
LINE
  8
1
 10
-5.825735
 20
-17.943232
 30
0.000000
 11
-5.829051
 21
-17.957888
 31
0.000000
  0
LINE
  8
1
 10
-5.829051
 20
-17.957888
 30
0.000000
 11
-5.832541
 21
-17.973972
 31
0.000000
  0
LINE
  8
1
 10
-5.832541
 20
-17.973972
 30
0.000000
 11
-5.836184
 21
-17.991489
 31
0.000000
  0
LINE
  8
1
 10
-5.836184
 20
-17.991489
 30
0.000000
 11
-5.839952
 21
-18.010439
 31
0.000000
  0
LINE
  8
1
 10
-5.839952
 20
-18.010439
 30
0.000000
 11
-5.843822
 21
-18.030828
 31
0.000000
  0
LINE
  8
1
 10
-5.843822
 20
-18.030828
 30
0.000000
 11
-5.847769
 21
-18.052658
 31
0.000000
  0
LINE
  8
1
 10
-5.847769
 20
-18.052658
 30
0.000000
 11
-5.851767
 21
-18.075933
 31
0.000000
  0
LINE
  8
1
 10
-5.851767
 20
-18.075933
 30
0.000000
 11
-5.855793
 21
-18.100655
 31
0.000000
  0
LINE
  8
1
 10
-5.855793
 20
-18.100655
 30
0.000000
 11
-5.859819
 21
-18.126823
 31
0.000000
  0
LINE
  8
1
 10
-5.859819
 20
-18.126823
 30
0.000000
 11
-5.863823
 21
-18.154444
 31
0.000000
  0
LINE
  8
1
 10
-5.863823
 20
-18.154444
 30
0.000000
 11
-5.867778
 21
-18.183516
 31
0.000000
  0
LINE
  8
1
 10
-5.867778
 20
-18.183516
 30
0.000000
 11
-5.871661
 21
-18.214043
 31
0.000000
  0
LINE
  8
1
 10
-5.871661
 20
-18.214043
 30
0.000000
 11
-5.875444
 21
-18.246021
 31
0.000000
  0
LINE
  8
1
 10
-5.875444
 20
-18.246021
 30
0.000000
 11
-5.879105
 21
-18.279455
 31
0.000000
  0
LINE
  8
1
 10
-5.879105
 20
-18.279455
 30
0.000000
 11
-5.882617
 21
-18.314342
 31
0.000000
  0
LINE
  8
1
 10
-5.882617
 20
-18.314342
 30
0.000000
 11
-5.885955
 21
-18.350687
 31
0.000000
  0
LINE
  8
1
 10
-5.885955
 20
-18.350687
 30
0.000000
 11
-5.889095
 21
-18.388485
 31
0.000000
  0
LINE
  8
1
 10
-5.889095
 20
-18.388485
 30
0.000000
 11
-5.892011
 21
-18.427734
 31
0.000000
  0
LINE
  8
1
 10
-5.892011
 20
-18.427734
 30
0.000000
 11
-5.894678
 21
-18.468439
 31
0.000000
  0
LINE
  8
1
 10
-5.894678
 20
-18.468439
 30
0.000000
 11
-5.897070
 21
-18.510592
 31
0.000000
  0
LINE
  8
1
 10
-5.897070
 20
-18.510592
 30
0.000000
 11
-5.899164
 21
-18.554193
 31
0.000000
  0
LINE
  8
1
 10
-5.899164
 20
-18.554193
 30
0.000000
 11
-5.900932
 21
-18.599243
 31
0.000000
  0
LINE
  8
1
 10
-5.900932
 20
-18.599243
 30
0.000000
 11
-5.902352
 21
-18.645737
 31
0.000000
  0
LINE
  8
1
 10
-5.902352
 20
-18.645737
 30
0.000000
 11
-5.903397
 21
-18.693670
 31
0.000000
  0
LINE
  8
1
 10
-5.903397
 20
-18.693670
 30
0.000000
 11
-5.904042
 21
-18.743044
 31
0.000000
  0
LINE
  8
1
 10
-5.904042
 20
-18.743044
 30
0.000000
 11
-5.904263
 21
-18.793852
 31
0.000000
  0
LINE
  8
1
 10
-5.904263
 20
-18.793852
 30
0.000000
 11
-5.904034
 21
-18.846090
 31
0.000000
  0
LINE
  8
1
 10
-5.904034
 20
-18.846090
 30
0.000000
 11
-5.903330
 21
-18.899759
 31
0.000000
  0
LINE
  8
1
 10
-5.903330
 20
-18.899759
 30
0.000000
 11
-5.902127
 21
-18.954847
 31
0.000000
  0
LINE
  8
1
 10
-5.902127
 20
-18.954847
 30
0.000000
 11
-5.900400
 21
-19.011354
 31
0.000000
  0
LINE
  8
1
 10
-5.900400
 20
-19.011354
 30
0.000000
 11
-5.898123
 21
-19.069275
 31
0.000000
  0
LINE
  8
1
 10
-5.898123
 20
-19.069275
 30
0.000000
 11
-5.895272
 21
-19.128601
 31
0.000000
  0
LINE
  8
1
 10
-5.895272
 20
-19.128601
 30
0.000000
 11
-5.891823
 21
-19.189333
 31
0.000000
  0
LINE
  8
1
 10
-5.891823
 20
-19.189333
 30
0.000000
 11
-5.887750
 21
-19.251457
 31
0.000000
  0
LINE
  8
1
 10
-5.887750
 20
-19.251457
 30
0.000000
 11
-5.883029
 21
-19.314970
 31
0.000000
  0
LINE
  8
1
 10
-5.883029
 20
-19.314970
 30
0.000000
 11
-5.877635
 21
-19.379868
 31
0.000000
  0
LINE
  8
1
 10
-5.877635
 20
-19.379868
 30
0.000000
 11
-5.871545
 21
-19.446142
 31
0.000000
  0
LINE
  8
1
 10
-5.871545
 20
-19.446142
 30
0.000000
 11
-5.864733
 21
-19.513783
 31
0.000000
  0
LINE
  8
1
 10
-5.864733
 20
-19.513783
 30
0.000000
 11
-5.857175
 21
-19.582785
 31
0.000000
  0
LINE
  8
1
 10
-5.857175
 20
-19.582785
 30
0.000000
 11
-5.848846
 21
-19.653139
 31
0.000000
  0
LINE
  8
1
 10
-5.848846
 20
-19.653139
 30
0.000000
 11
-5.839724
 21
-19.724838
 31
0.000000
  0
LINE
  8
1
 10
-5.839724
 20
-19.724838
 30
0.000000
 11
-5.829783
 21
-19.797873
 31
0.000000
  0
LINE
  8
1
 10
-5.829783
 20
-19.797873
 30
0.000000
 11
-5.819001
 21
-19.872234
 31
0.000000
  0
LINE
  8
1
 10
-5.819001
 20
-19.872234
 30
0.000000
 11
-5.807351
 21
-19.947914
 31
0.000000
  0
LINE
  8
1
 10
-5.807351
 20
-19.947914
 30
0.000000
 11
-5.794812
 21
-20.024902
 31
0.000000
  0
LINE
  8
1
 10
-5.794812
 20
-20.024902
 30
0.000000
 11
-5.781359
 21
-20.103188
 31
0.000000
  0
LINE
  8
1
 10
-5.781359
 20
-20.103188
 30
0.000000
 11
-5.766969
 21
-20.182762
 31
0.000000
  0
LINE
  8
1
 10
-5.766969
 20
-20.182762
 30
0.000000
 11
-5.751617
 21
-20.263611
 31
0.000000
  0
LINE
  8
1
 10
-5.751617
 20
-20.263611
 30
0.000000
 11
-5.735282
 21
-20.345730
 31
0.000000
  0
LINE
  8
1
 10
-5.735282
 20
-20.345730
 30
0.000000
 11
-5.717939
 21
-20.429104
 31
0.000000
  0
LINE
  8
1
 10
-5.717939
 20
-20.429104
 30
0.000000
 11
-5.699566
 21
-20.513721
 31
0.000000
  0
LINE
  8
1
 10
-5.699566
 20
-20.513721
 30
0.000000
 11
-5.680139
 21
-20.599571
 31
0.000000
  0
LINE
  8
1
 10
-5.680139
 20
-20.599571
 30
0.000000
 11
-5.659636
 21
-20.686642
 31
0.000000
  0
LINE
  8
1
 10
-5.659636
 20
-20.686642
 30
0.000000
 11
-5.638033
 21
-20.774920
 31
0.000000
  0
LINE
  8
1
 10
-5.638033
 20
-20.774920
 30
0.000000
 11
-5.615308
 21
-20.864393
 31
0.000000
  0
LINE
  8
1
 10
-5.615308
 20
-20.864393
 30
0.000000
 11
-5.591440
 21
-20.955050
 31
0.000000
  0
LINE
  8
1
 10
-5.591440
 20
-20.955050
 30
0.000000
 11
-5.566404
 21
-21.046873
 31
0.000000
  0
LINE
  8
1
 10
-5.566404
 20
-21.046873
 30
0.000000
 11
-5.540180
 21
-21.139854
 31
0.000000
  0
LINE
  8
1
 10
-5.540180
 20
-21.139854
 30
0.000000
 11
-5.512744
 21
-21.233976
 31
0.000000
  0
LINE
  8
1
 10
-5.512744
 20
-21.233976
 30
0.000000
 11
-5.491814
 21
-21.303522
 31
0.000000
  0
LINE
  8
1
 10
-5.491814
 20
-21.303522
 30
0.000000
 11
-4.136065
 21
-21.607706
 31
0.000000
  0
LINE
  8
1
 10
-4.136065
 20
-21.607706
 30
0.000000
 11
-4.087429
 21
-21.553770
 31
0.000000
  0
LINE
  8
1
 10
-4.087429
 20
-21.553770
 30
0.000000
 11
-4.022411
 21
-21.480392
 31
0.000000
  0
LINE
  8
1
 10
-4.022411
 20
-21.480392
 30
0.000000
 11
-3.958977
 21
-21.407528
 31
0.000000
  0
LINE
  8
1
 10
-3.958977
 20
-21.407528
 30
0.000000
 11
-3.897111
 21
-21.335201
 31
0.000000
  0
LINE
  8
1
 10
-3.897111
 20
-21.335201
 30
0.000000
 11
-3.836800
 21
-21.263432
 31
0.000000
  0
LINE
  8
1
 10
-3.836800
 20
-21.263432
 30
0.000000
 11
-3.778028
 21
-21.192244
 31
0.000000
  0
LINE
  8
1
 10
-3.778028
 20
-21.192244
 30
0.000000
 11
-3.720781
 21
-21.121656
 31
0.000000
  0
LINE
  8
1
 10
-3.720781
 20
-21.121656
 30
0.000000
 11
-3.665044
 21
-21.051691
 31
0.000000
  0
LINE
  8
1
 10
-3.665044
 20
-21.051691
 30
0.000000
 11
-3.610802
 21
-20.982372
 31
0.000000
  0
LINE
  8
1
 10
-3.610802
 20
-20.982372
 30
0.000000
 11
-3.558039
 21
-20.913715
 31
0.000000
  0
LINE
  8
1
 10
-3.558039
 20
-20.913715
 30
0.000000
 11
-3.506739
 21
-20.845741
 31
0.000000
  0
LINE
  8
1
 10
-3.506739
 20
-20.845741
 30
0.000000
 11
-3.456887
 21
-20.778473
 31
0.000000
  0
LINE
  8
1
 10
-3.456887
 20
-20.778473
 30
0.000000
 11
-3.408465
 21
-20.711931
 31
0.000000
  0
LINE
  8
1
 10
-3.408465
 20
-20.711931
 30
0.000000
 11
-3.361458
 21
-20.646133
 31
0.000000
  0
LINE
  8
1
 10
-3.361458
 20
-20.646133
 30
0.000000
 11
-3.315849
 21
-20.581100
 31
0.000000
  0
LINE
  8
1
 10
-3.315849
 20
-20.581100
 30
0.000000
 11
-3.271620
 21
-20.516848
 31
0.000000
  0
LINE
  8
1
 10
-3.271620
 20
-20.516848
 30
0.000000
 11
-3.228755
 21
-20.453402
 31
0.000000
  0
LINE
  8
1
 10
-3.228755
 20
-20.453402
 30
0.000000
 11
-3.187237
 21
-20.390774
 31
0.000000
  0
LINE
  8
1
 10
-3.187237
 20
-20.390774
 30
0.000000
 11
-3.147046
 21
-20.328985
 31
0.000000
  0
LINE
  8
1
 10
-3.147046
 20
-20.328985
 30
0.000000
 11
-3.108166
 21
-20.268057
 31
0.000000
  0
LINE
  8
1
 10
-3.108166
 20
-20.268057
 30
0.000000
 11
-3.070579
 21
-20.208006
 31
0.000000
  0
LINE
  8
1
 10
-3.070579
 20
-20.208006
 30
0.000000
 11
-3.034266
 21
-20.148846
 31
0.000000
  0
LINE
  8
1
 10
-3.034266
 20
-20.148846
 30
0.000000
 11
-2.999209
 21
-20.090599
 31
0.000000
  0
LINE
  8
1
 10
-2.999209
 20
-20.090599
 30
0.000000
 11
-2.965388
 21
-20.033281
 31
0.000000
  0
LINE
  8
1
 10
-2.965388
 20
-20.033281
 30
0.000000
 11
-2.932786
 21
-19.976908
 31
0.000000
  0
LINE
  8
1
 10
-2.932786
 20
-19.976908
 30
0.000000
 11
-2.901382
 21
-19.921499
 31
0.000000
  0
LINE
  8
1
 10
-2.901382
 20
-19.921499
 30
0.000000
 11
-2.871158
 21
-19.867069
 31
0.000000
  0
LINE
  8
1
 10
-2.871158
 20
-19.867069
 30
0.000000
 11
-2.842094
 21
-19.813635
 31
0.000000
  0
LINE
  8
1
 10
-2.842094
 20
-19.813635
 30
0.000000
 11
-2.814170
 21
-19.761213
 31
0.000000
  0
LINE
  8
1
 10
-2.814170
 20
-19.761213
 30
0.000000
 11
-2.787367
 21
-19.709816
 31
0.000000
  0
LINE
  8
1
 10
-2.787367
 20
-19.709816
 30
0.000000
 11
-2.761663
 21
-19.659464
 31
0.000000
  0
LINE
  8
1
 10
-2.761663
 20
-19.659464
 30
0.000000
 11
-2.737040
 21
-19.610170
 31
0.000000
  0
LINE
  8
1
 10
-2.737040
 20
-19.610170
 30
0.000000
 11
-2.713476
 21
-19.561947
 31
0.000000
  0
LINE
  8
1
 10
-2.713476
 20
-19.561947
 30
0.000000
 11
-2.690951
 21
-19.514814
 31
0.000000
  0
LINE
  8
1
 10
-2.690951
 20
-19.514814
 30
0.000000
 11
-2.669444
 21
-19.468782
 31
0.000000
  0
LINE
  8
1
 10
-2.669444
 20
-19.468782
 30
0.000000
 11
-2.648934
 21
-19.423866
 31
0.000000
  0
LINE
  8
1
 10
-2.648934
 20
-19.423866
 30
0.000000
 11
-2.629399
 21
-19.380079
 31
0.000000
  0
LINE
  8
1
 10
-2.629399
 20
-19.380079
 30
0.000000
 11
-2.610819
 21
-19.337437
 31
0.000000
  0
LINE
  8
1
 10
-2.610819
 20
-19.337437
 30
0.000000
 11
-2.593173
 21
-19.295950
 31
0.000000
  0
LINE
  8
1
 10
-2.593173
 20
-19.295950
 30
0.000000
 11
-2.576437
 21
-19.255632
 31
0.000000
  0
LINE
  8
1
 10
-2.576437
 20
-19.255632
 30
0.000000
 11
-2.560591
 21
-19.216497
 31
0.000000
  0
LINE
  8
1
 10
-2.560591
 20
-19.216497
 30
0.000000
 11
-2.545613
 21
-19.178556
 31
0.000000
  0
LINE
  8
1
 10
-2.545613
 20
-19.178556
 30
0.000000
 11
-2.531481
 21
-19.141825
 31
0.000000
  0
LINE
  8
1
 10
-2.531481
 20
-19.141825
 30
0.000000
 11
-2.518171
 21
-19.106308
 31
0.000000
  0
LINE
  8
1
 10
-2.518171
 20
-19.106308
 30
0.000000
 11
-2.505662
 21
-19.072021
 31
0.000000
  0
LINE
  8
1
 10
-2.505662
 20
-19.072021
 30
0.000000
 11
-2.493932
 21
-19.038977
 31
0.000000
  0
LINE
  8
1
 10
-2.493932
 20
-19.038977
 30
0.000000
 11
-2.482958
 21
-19.007185
 31
0.000000
  0
LINE
  8
1
 10
-2.482958
 20
-19.007185
 30
0.000000
 11
-2.472717
 21
-18.976654
 31
0.000000
  0
LINE
  8
1
 10
-2.472717
 20
-18.976654
 30
0.000000
 11
-2.463186
 21
-18.947395
 31
0.000000
  0
LINE
  8
1
 10
-2.463186
 20
-18.947395
 30
0.000000
 11
-2.454342
 21
-18.919420
 31
0.000000
  0
LINE
  8
1
 10
-2.454342
 20
-18.919420
 30
0.000000
 11
-2.446161
 21
-18.892736
 31
0.000000
  0
LINE
  8
1
 10
-2.446161
 20
-18.892736
 30
0.000000
 11
-2.438622
 21
-18.867355
 31
0.000000
  0
LINE
  8
1
 10
-2.438622
 20
-18.867355
 30
0.000000
 11
-2.431700
 21
-18.843285
 31
0.000000
  0
LINE
  8
1
 10
-2.431700
 20
-18.843285
 30
0.000000
 11
-2.425371
 21
-18.820532
 31
0.000000
  0
LINE
  8
1
 10
-2.425371
 20
-18.820532
 30
0.000000
 11
-2.419613
 21
-18.799109
 31
0.000000
  0
LINE
  8
1
 10
-2.419613
 20
-18.799109
 30
0.000000
 11
-2.414401
 21
-18.779020
 31
0.000000
  0
LINE
  8
1
 10
-2.414401
 20
-18.779020
 30
0.000000
 11
-2.409712
 21
-18.760277
 31
0.000000
  0
LINE
  8
1
 10
-2.409712
 20
-18.760277
 30
0.000000
 11
-2.405522
 21
-18.742884
 31
0.000000
  0
LINE
  8
1
 10
-2.405522
 20
-18.742884
 30
0.000000
 11
-2.401807
 21
-18.726849
 31
0.000000
  0
LINE
  8
1
 10
-2.401807
 20
-18.726849
 30
0.000000
 11
-2.398542
 21
-18.712181
 31
0.000000
  0
LINE
  8
1
 10
-2.398542
 20
-18.712181
 30
0.000000
 11
-2.395705
 21
-18.698883
 31
0.000000
  0
LINE
  8
1
 10
-2.395705
 20
-18.698883
 30
0.000000
 11
-2.393270
 21
-18.686964
 31
0.000000
  0
LINE
  8
1
 10
-2.393270
 20
-18.686964
 30
0.000000
 11
-2.391213
 21
-18.676428
 31
0.000000
  0
LINE
  8
1
 10
-2.391213
 20
-18.676428
 30
0.000000
 11
-2.389510
 21
-18.667284
 31
0.000000
  0
LINE
  8
1
 10
-2.389510
 20
-18.667284
 30
0.000000
 11
-2.388136
 21
-18.659531
 31
0.000000
  0
LINE
  8
1
 10
-2.388136
 20
-18.659531
 30
0.000000
 11
-2.387067
 21
-18.653181
 31
0.000000
  0
LINE
  8
1
 10
-2.387067
 20
-18.653181
 30
0.000000
 11
-2.386279
 21
-18.648233
 31
0.000000
  0
LINE
  8
1
 10
-2.386279
 20
-18.648233
 30
0.000000
 11
-2.385747
 21
-18.644697
 31
0.000000
  0
LINE
  8
1
 10
-2.385747
 20
-18.644697
 30
0.000000
 11
-2.385350
 21
-18.641861
 31
0.000000
  0
LINE
  8
1
 10
-2.385350
 20
-18.641861
 30
0.000000
 11
-2.221132
 21
-17.358473
 31
0.000000
  0
LINE
  8
1
 10
-2.221132
 20
-17.358473
 30
0.000000
 11
-0.000000
 21
-17.500000
 31
0.000000
  0
LINE
  8
1
 10
-0.000000
 20
-17.500000
 30
0.000000
 11
-0.000000
 21
-18.793852
 31
0.000000
  0
LINE
  8
1
 10
-0.000000
 20
-18.793852
 30
0.000000
 11
0.000033
 21
-18.796715
 31
0.000000
  0
LINE
  8
1
 10
0.000033
 20
-18.796715
 30
0.000000
 11
0.000112
 21
-18.800291
 31
0.000000
  0
LINE
  8
1
 10
0.000112
 20
-18.800291
 30
0.000000
 11
0.000266
 21
-18.805298
 31
0.000000
  0
LINE
  8
1
 10
0.000266
 20
-18.805298
 30
0.000000
 11
0.000520
 21
-18.811733
 31
0.000000
  0
LINE
  8
1
 10
0.000520
 20
-18.811733
 30
0.000000
 11
0.000899
 21
-18.819597
 31
0.000000
  0
LINE
  8
1
 10
0.000899
 20
-18.819597
 30
0.000000
 11
0.001427
 21
-18.828884
 31
0.000000
  0
LINE
  8
1
 10
0.001427
 20
-18.828884
 30
0.000000
 11
0.002131
 21
-18.839596
 31
0.000000
  0
LINE
  8
1
 10
0.002131
 20
-18.839596
 30
0.000000
 11
0.003033
 21
-18.851727
 31
0.000000
  0
LINE
  8
1
 10
0.003033
 20
-18.851727
 30
0.000000
 11
0.004160
 21
-18.865278
 31
0.000000
  0
LINE
  8
1
 10
0.004160
 20
-18.865278
 30
0.000000
 11
0.005536
 21
-18.880241
 31
0.000000
  0
LINE
  8
1
 10
0.005536
 20
-18.880241
 30
0.000000
 11
0.007186
 21
-18.896618
 31
0.000000
  0
LINE
  8
1
 10
0.007186
 20
-18.896618
 30
0.000000
 11
0.009135
 21
-18.914402
 31
0.000000
  0
LINE
  8
1
 10
0.009135
 20
-18.914402
 30
0.000000
 11
0.011407
 21
-18.933590
 31
0.000000
  0
LINE
  8
1
 10
0.011407
 20
-18.933590
 30
0.000000
 11
0.014027
 21
-18.954176
 31
0.000000
  0
LINE
  8
1
 10
0.014027
 20
-18.954176
 30
0.000000
 11
0.017020
 21
-18.976158
 31
0.000000
  0
LINE
  8
1
 10
0.017020
 20
-18.976158
 30
0.000000
 11
0.020409
 21
-18.999529
 31
0.000000
  0
LINE
  8
1
 10
0.020409
 20
-18.999529
 30
0.000000
 11
0.024220
 21
-19.024284
 31
0.000000
  0
LINE
  8
1
 10
0.024220
 20
-19.024284
 30
0.000000
 11
0.028478
 21
-19.050417
 31
0.000000
  0
LINE
  8
1
 10
0.028478
 20
-19.050417
 30
0.000000
 11
0.033205
 21
-19.077923
 31
0.000000
  0
LINE
  8
1
 10
0.033205
 20
-19.077923
 30
0.000000
 11
0.038427
 21
-19.106794
 31
0.000000
  0
LINE
  8
1
 10
0.038427
 20
-19.106794
 30
0.000000
 11
0.044168
 21
-19.137026
 31
0.000000
  0
LINE
  8
1
 10
0.044168
 20
-19.137026
 30
0.000000
 11
0.050451
 21
-19.168610
 31
0.000000
  0
LINE
  8
1
 10
0.050451
 20
-19.168610
 30
0.000000
 11
0.057301
 21
-19.201538
 31
0.000000
  0
LINE
  8
1
 10
0.057301
 20
-19.201538
 30
0.000000
 11
0.064742
 21
-19.235804
 31
0.000000
  0
LINE
  8
1
 10
0.064742
 20
-19.235804
 30
0.000000
 11
0.072798
 21
-19.271400
 31
0.000000
  0
LINE
  8
1
 10
0.072798
 20
-19.271400
 30
0.000000
 11
0.081492
 21
-19.308319
 31
0.000000
  0
LINE
  8
1
 10
0.081492
 20
-19.308319
 30
0.000000
 11
0.090848
 21
-19.346548
 31
0.000000
  0
LINE
  8
1
 10
0.090848
 20
-19.346548
 30
0.000000
 11
0.100890
 21
-19.386084
 31
0.000000
  0
LINE
  8
1
 10
0.100890
 20
-19.386084
 30
0.000000
 11
0.111640
 21
-19.426912
 31
0.000000
  0
LINE
  8
1
 10
0.111640
 20
-19.426912
 30
0.000000
 11
0.123123
 21
-19.469028
 31
0.000000
  0
LINE
  8
1
 10
0.123123
 20
-19.469028
 30
0.000000
 11
0.135362
 21
-19.512419
 31
0.000000
  0
LINE
  8
1
 10
0.135362
 20
-19.512419
 30
0.000000
 11
0.148379
 21
-19.557076
 31
0.000000
  0
LINE
  8
1
 10
0.148379
 20
-19.557076
 30
0.000000
 11
0.162198
 21
-19.602987
 31
0.000000
  0
LINE
  8
1
 10
0.162198
 20
-19.602987
 30
0.000000
 11
0.176841
 21
-19.650143
 31
0.000000
  0
LINE
  8
1
 10
0.176841
 20
-19.650143
 30
0.000000
 11
0.192332
 21
-19.698532
 31
0.000000
  0
LINE
  8
1
 10
0.192332
 20
-19.698532
 30
0.000000
 11
0.208693
 21
-19.748144
 31
0.000000
  0
LINE
  8
1
 10
0.208693
 20
-19.748144
 30
0.000000
 11
0.225946
 21
-19.798967
 31
0.000000
  0
LINE
  8
1
 10
0.225946
 20
-19.798967
 30
0.000000
 11
0.244113
 21
-19.850988
 31
0.000000
  0
LINE
  8
1
 10
0.244113
 20
-19.850988
 30
0.000000
 11
0.263218
 21
-19.904196
 31
0.000000
  0
LINE
  8
1
 10
0.263218
 20
-19.904196
 30
0.000000
 11
0.283282
 21
-19.958578
 31
0.000000
  0
LINE
  8
1
 10
0.283282
 20
-19.958578
 30
0.000000
 11
0.304326
 21
-20.014120
 31
0.000000
  0
LINE
  8
1
 10
0.304326
 20
-20.014120
 30
0.000000
 11
0.326373
 21
-20.070812
 31
0.000000
  0
LINE
  8
1
 10
0.326373
 20
-20.070812
 30
0.000000
 11
0.349444
 21
-20.128637
 31
0.000000
  0
LINE
  8
1
 10
0.349444
 20
-20.128637
 30
0.000000
 11
0.373561
 21
-20.187584
 31
0.000000
  0
LINE
  8
1
 10
0.373561
 20
-20.187584
 30
0.000000
 11
0.398745
 21
-20.247639
 31
0.000000
  0
LINE
  8
1
 10
0.398745
 20
-20.247639
 30
0.000000
 11
0.425017
 21
-20.308786
 31
0.000000
  0
LINE
  8
1
 10
0.425017
 20
-20.308786
 30
0.000000
 11
0.452398
 21
-20.371012
 31
0.000000
  0
LINE
  8
1
 10
0.452398
 20
-20.371012
 30
0.000000
 11
0.480909
 21
-20.434301
 31
0.000000
  0
LINE
  8
1
 10
0.480909
 20
-20.434301
 30
0.000000
 11
0.510570
 21
-20.498638
 31
0.000000
  0
LINE
  8
1
 10
0.510570
 20
-20.498638
 30
0.000000
 11
0.541403
 21
-20.564009
 31
0.000000
  0
LINE
  8
1
 10
0.541403
 20
-20.564009
 30
0.000000
 11
0.573426
 21
-20.630398
 31
0.000000
  0
LINE
  8
1
 10
0.573426
 20
-20.630398
 30
0.000000
 11
0.606660
 21
-20.697788
 31
0.000000
  0
LINE
  8
1
 10
0.606660
 20
-20.697788
 30
0.000000
 11
0.641125
 21
-20.766163
 31
0.000000
  0
LINE
  8
1
 10
0.641125
 20
-20.766163
 30
0.000000
 11
0.676841
 21
-20.835508
 31
0.000000
  0
LINE
  8
1
 10
0.676841
 20
-20.835508
 30
0.000000
 11
0.713827
 21
-20.905806
 31
0.000000
  0
LINE
  8
1
 10
0.713827
 20
-20.905806
 30
0.000000
 11
0.752103
 21
-20.977037
 31
0.000000
  0
LINE
  8
1
 10
0.752103
 20
-20.977037
 30
0.000000
 11
0.791687
 21
-21.049187
 31
0.000000
  0
LINE
  8
1
 10
0.791687
 20
-21.049187
 30
0.000000
 11
0.832599
 21
-21.122238
 31
0.000000
  0
LINE
  8
1
 10
0.832599
 20
-21.122238
 30
0.000000
 11
0.874857
 21
-21.196173
 31
0.000000
  0
LINE
  8
1
 10
0.874857
 20
-21.196173
 30
0.000000
 11
0.918479
 21
-21.270971
 31
0.000000
  0
LINE
  8
1
 10
0.918479
 20
-21.270971
 30
0.000000
 11
0.963484
 21
-21.346615
 31
0.000000
  0
LINE
  8
1
 10
0.963484
 20
-21.346615
 30
0.000000
 11
1.009890
 21
-21.423088
 31
0.000000
  0
LINE
  8
1
 10
1.009890
 20
-21.423088
 30
0.000000
 11
1.057715
 21
-21.500370
 31
0.000000
  0
LINE
  8
1
 10
1.057715
 20
-21.500370
 30
0.000000
 11
1.106976
 21
-21.578442
 31
0.000000
  0
LINE
  8
1
 10
1.106976
 20
-21.578442
 30
0.000000
 11
1.157691
 21
-21.657286
 31
0.000000
  0
LINE
  8
1
 10
1.157691
 20
-21.657286
 30
0.000000
 11
1.209877
 21
-21.736879
 31
0.000000
  0
LINE
  8
1
 10
1.209877
 20
-21.736879
 30
0.000000
 11
1.263550
 21
-21.817205
 31
0.000000
  0
LINE
  8
1
 10
1.263550
 20
-21.817205
 30
0.000000
 11
1.318728
 21
-21.898243
 31
0.000000
  0
LINE
  8
1
 10
1.318728
 20
-21.898243
 30
0.000000
 11
1.360125
 21
-21.957916
 31
0.000000
  0
LINE
  8
1
 10
1.360125
 20
-21.957916
 30
0.000000
 11
2.743518
 21
-21.828264
 31
0.000000
  0
LINE
  8
1
 10
2.743518
 20
-21.828264
 30
0.000000
 11
2.773106
 21
-21.761940
 31
0.000000
  0
LINE
  8
1
 10
2.773106
 20
-21.761940
 30
0.000000
 11
2.812266
 21
-21.672060
 31
0.000000
  0
LINE
  8
1
 10
2.812266
 20
-21.672060
 30
0.000000
 11
2.850079
 21
-21.583160
 31
0.000000
  0
LINE
  8
1
 10
2.850079
 20
-21.583160
 30
0.000000
 11
2.886567
 21
-21.495256
 31
0.000000
  0
LINE
  8
1
 10
2.886567
 20
-21.495256
 30
0.000000
 11
2.921748
 21
-21.408361
 31
0.000000
  0
LINE
  8
1
 10
2.921748
 20
-21.408361
 30
0.000000
 11
2.955646
 21
-21.322496
 31
0.000000
  0
LINE
  8
1
 10
2.955646
 20
-21.322496
 30
0.000000
 11
2.988278
 21
-21.237675
 31
0.000000
  0
LINE
  8
1
 10
2.988278
 20
-21.237675
 30
0.000000
 11
3.019666
 21
-21.153910
 31
0.000000
  0
LINE
  8
1
 10
3.019666
 20
-21.153910
 30
0.000000
 11
3.049833
 21
-21.071220
 31
0.000000
  0
LINE
  8
1
 10
3.049833
 20
-21.071220
 30
0.000000
 11
3.078797
 21
-20.989620
 31
0.000000
  0
LINE
  8
1
 10
3.078797
 20
-20.989620
 30
0.000000
 11
3.106582
 21
-20.909121
 31
0.000000
  0
LINE
  8
1
 10
3.106582
 20
-20.909121
 30
0.000000
 11
3.133207
 21
-20.829741
 31
0.000000
  0
LINE
  8
1
 10
3.133207
 20
-20.829741
 30
0.000000
 11
3.158696
 21
-20.751492
 31
0.000000
  0
LINE
  8
1
 10
3.158696
 20
-20.751492
 30
0.000000
 11
3.183070
 21
-20.674389
 31
0.000000
  0
LINE
  8
1
 10
3.183070
 20
-20.674389
 30
0.000000
 11
3.206350
 21
-20.598444
 31
0.000000
  0
LINE
  8
1
 10
3.206350
 20
-20.598444
 30
0.000000
 11
3.228559
 21
-20.523668
 31
0.000000
  0
LINE
  8
1
 10
3.228559
 20
-20.523668
 30
0.000000
 11
3.249720
 21
-20.450081
 31
0.000000
  0
LINE
  8
1
 10
3.249720
 20
-20.450081
 30
0.000000
 11
3.269854
 21
-20.377689
 31
0.000000
  0
LINE
  8
1
 10
3.269854
 20
-20.377689
 30
0.000000
 11
3.288984
 21
-20.306505
 31
0.000000
  0
LINE
  8
1
 10
3.288984
 20
-20.306505
 30
0.000000
 11
3.307132
 21
-20.236546
 31
0.000000
  0
LINE
  8
1
 10
3.307132
 20
-20.236546
 30
0.000000
 11
3.324323
 21
-20.167816
 31
0.000000
  0
LINE
  8
1
 10
3.324323
 20
-20.167816
 30
0.000000
 11
3.340578
 21
-20.100332
 31
0.000000
  0
LINE
  8
1
 10
3.340578
 20
-20.100332
 30
0.000000
 11
3.355920
 21
-20.034103
 31
0.000000
  0
LINE
  8
1
 10
3.355920
 20
-20.034103
 30
0.000000
 11
3.370373
 21
-19.969139
 31
0.000000
  0
LINE
  8
1
 10
3.370373
 20
-19.969139
 30
0.000000
 11
3.383959
 21
-19.905449
 31
0.000000
  0
LINE
  8
1
 10
3.383959
 20
-19.905449
 30
0.000000
 11
3.396703
 21
-19.843048
 31
0.000000
  0
LINE
  8
1
 10
3.396703
 20
-19.843048
 30
0.000000
 11
3.408629
 21
-19.781944
 31
0.000000
  0
LINE
  8
1
 10
3.408629
 20
-19.781944
 30
0.000000
 11
3.419758
 21
-19.722141
 31
0.000000
  0
LINE
  8
1
 10
3.419758
 20
-19.722141
 30
0.000000
 11
3.430116
 21
-19.663656
 31
0.000000
  0
LINE
  8
1
 10
3.430116
 20
-19.663656
 30
0.000000
 11
3.439725
 21
-19.606493
 31
0.000000
  0
LINE
  8
1
 10
3.439725
 20
-19.606493
 30
0.000000
 11
3.448611
 21
-19.550663
 31
0.000000
  0
LINE
  8
1
 10
3.448611
 20
-19.550663
 30
0.000000
 11
3.456796
 21
-19.496172
 31
0.000000
  0
LINE
  8
1
 10
3.456796
 20
-19.496172
 30
0.000000
 11
3.464306
 21
-19.443029
 31
0.000000
  0
LINE
  8
1
 10
3.464306
 20
-19.443029
 30
0.000000
 11
3.471163
 21
-19.391241
 31
0.000000
  0
LINE
  8
1
 10
3.471163
 20
-19.391241
 30
0.000000
 11
3.477393
 21
-19.340815
 31
0.000000
  0
LINE
  8
1
 10
3.477393
 20
-19.340815
 30
0.000000
 11
3.483019
 21
-19.291759
 31
0.000000
  0
LINE
  8
1
 10
3.483019
 20
-19.291759
 30
0.000000
 11
3.488067
 21
-19.244080
 31
0.000000
  0
LINE
  8
1
 10
3.488067
 20
-19.244080
 30
0.000000
 11
3.492560
 21
-19.197783
 31
0.000000
  0
LINE
  8
1
 10
3.492560
 20
-19.197783
 30
0.000000
 11
3.496523
 21
-19.152874
 31
0.000000
  0
LINE
  8
1
 10
3.496523
 20
-19.152874
 30
0.000000
 11
3.499980
 21
-19.109358
 31
0.000000
  0
LINE
  8
1
 10
3.499980
 20
-19.109358
 30
0.000000
 11
3.502958
 21
-19.067242
 31
0.000000
  0
LINE
  8
1
 10
3.502958
 20
-19.067242
 30
0.000000
 11
3.505478
 21
-19.026529
 31
0.000000
  0
LINE
  8
1
 10
3.505478
 20
-19.026529
 30
0.000000
 11
3.507568
 21
-18.987228
 31
0.000000
  0
LINE
  8
1
 10
3.507568
 20
-18.987228
 30
0.000000
 11
3.509251
 21
-18.949337
 31
0.000000
  0
LINE
  8
1
 10
3.509251
 20
-18.949337
 30
0.000000
 11
3.510552
 21
-18.912863
 31
0.000000
  0
LINE
  8
1
 10
3.510552
 20
-18.912863
 30
0.000000
 11
3.511497
 21
-18.877811
 31
0.000000
  0
LINE
  8
1
 10
3.511497
 20
-18.877811
 30
0.000000
 11
3.512110
 21
-18.844183
 31
0.000000
  0
LINE
  8
1
 10
3.512110
 20
-18.844183
 30
0.000000
 11
3.512415
 21
-18.811981
 31
0.000000
  0
LINE
  8
1
 10
3.512415
 20
-18.811981
 30
0.000000
 11
3.512439
 21
-18.781210
 31
0.000000
  0
LINE
  8
1
 10
3.512439
 20
-18.781210
 30
0.000000
 11
3.512205
 21
-18.751871
 31
0.000000
  0
LINE
  8
1
 10
3.512205
 20
-18.751871
 30
0.000000
 11
3.511739
 21
-18.723967
 31
0.000000
  0
LINE
  8
1
 10
3.511739
 20
-18.723967
 30
0.000000
 11
3.511066
 21
-18.697498
 31
0.000000
  0
LINE
  8
1
 10
3.511066
 20
-18.697498
 30
0.000000
 11
3.510211
 21
-18.672464
 31
0.000000
  0
LINE
  8
1
 10
3.510211
 20
-18.672464
 30
0.000000
 11
3.509200
 21
-18.648870
 31
0.000000
  0
LINE
  8
1
 10
3.509200
 20
-18.648870
 30
0.000000
 11
3.508056
 21
-18.626717
 31
0.000000
  0
LINE
  8
1
 10
3.508056
 20
-18.626717
 30
0.000000
 11
3.506805
 21
-18.606001
 31
0.000000
  0
LINE
  8
1
 10
3.506805
 20
-18.606001
 30
0.000000
 11
3.505472
 21
-18.586725
 31
0.000000
  0
LINE
  8
1
 10
3.505472
 20
-18.586725
 30
0.000000
 11
3.504082
 21
-18.568890
 31
0.000000
  0
LINE
  8
1
 10
3.504082
 20
-18.568890
 30
0.000000
 11
3.502661
 21
-18.552490
 31
0.000000
  0
LINE
  8
1
 10
3.502661
 20
-18.552490
 30
0.000000
 11
3.501233
 21
-18.537533
 31
0.000000
  0
LINE
  8
1
 10
3.501233
 20
-18.537533
 30
0.000000
 11
3.499822
 21
-18.524008
 31
0.000000
  0
LINE
  8
1
 10
3.499822
 20
-18.524008
 30
0.000000
 11
3.498455
 21
-18.511921
 31
0.000000
  0
LINE
  8
1
 10
3.498455
 20
-18.511921
 30
0.000000
 11
3.497156
 21
-18.501265
 31
0.000000
  0
LINE
  8
1
 10
3.497156
 20
-18.501265
 30
0.000000
 11
3.495949
 21
-18.492041
 31
0.000000
  0
LINE
  8
1
 10
3.495949
 20
-18.492041
 30
0.000000
 11
3.494860
 21
-18.484243
 31
0.000000
  0
LINE
  8
1
 10
3.494860
 20
-18.484243
 30
0.000000
 11
3.493914
 21
-18.477873
 31
0.000000
  0
LINE
  8
1
 10
3.493914
 20
-18.477873
 30
0.000000
 11
3.493135
 21
-18.472925
 31
0.000000
  0
LINE
  8
1
 10
3.493135
 20
-18.472925
 30
0.000000
 11
3.492548
 21
-18.469397
 31
0.000000
  0
LINE
  8
1
 10
3.492548
 20
-18.469397
 30
0.000000
 11
3.492049
 21
-18.466578
 31
0.000000
  0
LINE
  8
1
 10
3.492049
 20
-18.466578
 30
0.000000
 11
3.251641
 21
-17.195257
 31
0.000000
  0
LINE
  8
1
 10
3.251641
 20
-17.195257
 30
0.000000
 11
5.407797
 21
-16.643490
 31
0.000000
  0
LINE
  8
1
 10
5.407797
 20
-16.643490
 30
0.000000
 11
5.807620
 21
-17.874016
 31
0.000000
  0
LINE
  8
1
 10
5.807620
 20
-17.874016
 30
0.000000
 11
5.808536
 21
-17.876728
 31
0.000000
  0
LINE
  8
1
 10
5.808536
 20
-17.876728
 30
0.000000
 11
5.809717
 21
-17.880106
 31
0.000000
  0
LINE
  8
1
 10
5.809717
 20
-17.880106
 30
0.000000
 11
5.811410
 21
-17.884819
 31
0.000000
  0
LINE
  8
1
 10
5.811410
 20
-17.884819
 30
0.000000
 11
5.813640
 21
-17.890862
 31
0.000000
  0
LINE
  8
1
 10
5.813640
 20
-17.890862
 30
0.000000
 11
5.816431
 21
-17.898224
 31
0.000000
  0
LINE
  8
1
 10
5.816431
 20
-17.898224
 30
0.000000
 11
5.819803
 21
-17.906893
 31
0.000000
  0
LINE
  8
1
 10
5.819803
 20
-17.906893
 30
0.000000
 11
5.823781
 21
-17.916862
 31
0.000000
  0
LINE
  8
1
 10
5.823781
 20
-17.916862
 30
0.000000
 11
5.828389
 21
-17.928120
 31
0.000000
  0
LINE
  8
1
 10
5.828389
 20
-17.928120
 30
0.000000
 11
5.833648
 21
-17.940660
 31
0.000000
  0
LINE
  8
1
 10
5.833648
 20
-17.940660
 30
0.000000
 11
5.839581
 21
-17.954466
 31
0.000000
  0
LINE
  8
1
 10
5.839581
 20
-17.954466
 30
0.000000
 11
5.846211
 21
-17.969532
 31
0.000000
  0
LINE
  8
1
 10
5.846211
 20
-17.969532
 30
0.000000
 11
5.853559
 21
-17.985844
 31
0.000000
  0
LINE
  8
1
 10
5.853559
 20
-17.985844
 30
0.000000
 11
5.861650
 21
-18.003389
 31
0.000000
  0
LINE
  8
1
 10
5.861650
 20
-18.003389
 30
0.000000
 11
5.870503
 21
-18.022158
 31
0.000000
  0
LINE
  8
1
 10
5.870503
 20
-18.022158
 30
0.000000
 11
5.880142
 21
-18.042139
 31
0.000000
  0
LINE
  8
1
 10
5.880142
 20
-18.042139
 30
0.000000
 11
5.890588
 21
-18.063320
 31
0.000000
  0
LINE
  8
1
 10
5.890588
 20
-18.063320
 30
0.000000
 11
5.901862
 21
-18.085686
 31
0.000000
  0
LINE
  8
1
 10
5.901862
 20
-18.085686
 30
0.000000
 11
5.913987
 21
-18.109224
 31
0.000000
  0
LINE
  8
1
 10
5.913987
 20
-18.109224
 30
0.000000
 11
5.926982
 21
-18.133923
 31
0.000000
  0
LINE
  8
1
 10
5.926982
 20
-18.133923
 30
0.000000
 11
5.940870
 21
-18.159767
 31
0.000000
  0
LINE
  8
1
 10
5.940870
 20
-18.159767
 30
0.000000
 11
5.955672
 21
-18.186745
 31
0.000000
  0
LINE
  8
1
 10
5.955672
 20
-18.186745
 30
0.000000
 11
5.971408
 21
-18.214842
 31
0.000000
  0
LINE
  8
1
 10
5.971408
 20
-18.214842
 30
0.000000
 11
5.988099
 21
-18.244041
 31
0.000000
  0
LINE
  8
1
 10
5.988099
 20
-18.244041
 30
0.000000
 11
6.005764
 21
-18.274330
 31
0.000000
  0
LINE
  8
1
 10
6.005764
 20
-18.274330
 30
0.000000
 11
6.024426
 21
-18.305696
 31
0.000000
  0
LINE
  8
1
 10
6.024426
 20
-18.305696
 30
0.000000
 11
6.044102
 21
-18.338121
 31
0.000000
  0
LINE
  8
1
 10
6.044102
 20
-18.338121
 30
0.000000
 11
6.064814
 21
-18.371588
 31
0.000000
  0
LINE
  8
1
 10
6.064814
 20
-18.371588
 30
0.000000
 11
6.086581
 21
-18.406084
 31
0.000000
  0
LINE
  8
1
 10
6.086581
 20
-18.406084
 30
0.000000
 11
6.109422
 21
-18.441593
 31
0.000000
  0
LINE
  8
1
 10
6.109422
 20
-18.441593
 30
0.000000
 11
6.133358
 21
-18.478100
 31
0.000000
  0
LINE
  8
1
 10
6.133358
 20
-18.478100
 30
0.000000
 11
6.158406
 21
-18.515585
 31
0.000000
  0
LINE
  8
1
 10
6.158406
 20
-18.515585
 30
0.000000
 11
6.184586
 21
-18.554033
 31
0.000000
  0
LINE
  8
1
 10
6.184586
 20
-18.554033
 30
0.000000
 11
6.211916
 21
-18.593428
 31
0.000000
  0
LINE
  8
1
 10
6.211916
 20
-18.593428
 30
0.000000
 11
6.240414
 21
-18.633749
 31
0.000000
  0
LINE
  8
1
 10
6.240414
 20
-18.633749
 30
0.000000
 11
6.270100
 21
-18.674984
 31
0.000000
  0
LINE
  8
1
 10
6.270100
 20
-18.674984
 30
0.000000
 11
6.300991
 21
-18.717112
 31
0.000000
  0
LINE
  8
1
 10
6.300991
 20
-18.717112
 30
0.000000
 11
6.333105
 21
-18.760117
 31
0.000000
  0
LINE
  8
1
 10
6.333105
 20
-18.760117
 30
0.000000
 11
6.366458
 21
-18.803978
 31
0.000000
  0
LINE
  8
1
 10
6.366458
 20
-18.803978
 30
0.000000
 11
6.401070
 21
-18.848677
 31
0.000000
  0
LINE
  8
1
 10
6.401070
 20
-18.848677
 30
0.000000
 11
6.436957
 21
-18.894197
 31
0.000000
  0
LINE
  8
1
 10
6.436957
 20
-18.894197
 30
0.000000
 11
6.474135
 21
-18.940517
 31
0.000000
  0
LINE
  8
1
 10
6.474135
 20
-18.940517
 30
0.000000
 11
6.512621
 21
-18.987623
 31
0.000000
  0
LINE
  8
1
 10
6.512621
 20
-18.987623
 30
0.000000
 11
6.552433
 21
-19.035488
 31
0.000000
  0
LINE
  8
1
 10
6.552433
 20
-19.035488
 30
0.000000
 11
6.593585
 21
-19.084097
 31
0.000000
  0
LINE
  8
1
 10
6.593585
 20
-19.084097
 30
0.000000
 11
6.636094
 21
-19.133430
 31
0.000000
  0
LINE
  8
1
 10
6.636094
 20
-19.133430
 30
0.000000
 11
6.679976
 21
-19.183466
 31
0.000000
  0
LINE
  8
1
 10
6.679976
 20
-19.183466
 30
0.000000
 11
6.725245
 21
-19.234184
 31
0.000000
  0
LINE
  8
1
 10
6.725245
 20
-19.234184
 30
0.000000
 11
6.771918
 21
-19.285566
 31
0.000000
  0
LINE
  8
1
 10
6.771918
 20
-19.285566
 30
0.000000
 11
6.820009
 21
-19.337589
 31
0.000000
  0
LINE
  8
1
 10
6.820009
 20
-19.337589
 30
0.000000
 11
6.869533
 21
-19.390232
 31
0.000000
  0
LINE
  8
1
 10
6.869533
 20
-19.390232
 30
0.000000
 11
6.920504
 21
-19.443476
 31
0.000000
  0
LINE
  8
1
 10
6.920504
 20
-19.443476
 30
0.000000
 11
6.972937
 21
-19.497299
 31
0.000000
  0
LINE
  8
1
 10
6.972937
 20
-19.497299
 30
0.000000
 11
7.026844
 21
-19.551676
 31
0.000000
  0
LINE
  8
1
 10
7.026844
 20
-19.551676
 30
0.000000
 11
7.082241
 21
-19.606590
 31
0.000000
  0
LINE
  8
1
 10
7.082241
 20
-19.606590
 30
0.000000
 11
7.139140
 21
-19.662018
 31
0.000000
  0
LINE
  8
1
 10
7.139140
 20
-19.662018
 30
0.000000
 11
7.197554
 21
-19.717936
 31
0.000000
  0
LINE
  8
1
 10
7.197554
 20
-19.717936
 30
0.000000
 11
7.257496
 21
-19.774323
 31
0.000000
  0
LINE
  8
1
 10
7.257496
 20
-19.774323
 30
0.000000
 11
7.318979
 21
-19.831156
 31
0.000000
  0
LINE
  8
1
 10
7.318979
 20
-19.831156
 30
0.000000
 11
7.382016
 21
-19.888412
 31
0.000000
  0
LINE
  8
1
 10
7.382016
 20
-19.888412
 30
0.000000
 11
7.446618
 21
-19.946072
 31
0.000000
  0
LINE
  8
1
 10
7.446618
 20
-19.946072
 30
0.000000
 11
7.512795
 21
-20.004105
 31
0.000000
  0
LINE
  8
1
 10
7.512795
 20
-20.004105
 30
0.000000
 11
7.580561
 21
-20.062494
 31
0.000000
  0
LINE
  8
1
 10
7.580561
 20
-20.062494
 30
0.000000
 11
7.649927
 21
-20.121216
 31
0.000000
  0
LINE
  8
1
 10
7.649927
 20
-20.121216
 30
0.000000
 11
7.720902
 21
-20.180244
 31
0.000000
  0
LINE
  8
1
 10
7.720902
 20
-20.180244
 30
0.000000
 11
7.793499
 21
-20.239557
 31
0.000000
  0
LINE
  8
1
 10
7.793499
 20
-20.239557
 30
0.000000
 11
7.867727
 21
-20.299129
 31
0.000000
  0
LINE
  8
1
 10
7.867727
 20
-20.299129
 30
0.000000
 11
7.943595
 21
-20.358938
 31
0.000000
  0
LINE
  8
1
 10
7.943595
 20
-20.358938
 30
0.000000
 11
8.021114
 21
-20.418959
 31
0.000000
  0
LINE
  8
1
 10
8.021114
 20
-20.418959
 30
0.000000
 11
8.078925
 21
-20.462917
 31
0.000000
  0
LINE
  8
1
 10
8.078925
 20
-20.462917
 30
0.000000
 11
9.354546
 21
-19.912121
 31
0.000000
  0
LINE
  8
1
 10
9.354546
 20
-19.912121
 30
0.000000
 11
9.362189
 21
-19.839897
 31
0.000000
  0
LINE
  8
1
 10
9.362189
 20
-19.839897
 30
0.000000
 11
9.371658
 21
-19.742315
 31
0.000000
  0
LINE
  8
1
 10
9.371658
 20
-19.742315
 30
0.000000
 11
9.380149
 21
-19.646082
 31
0.000000
  0
LINE
  8
1
 10
9.380149
 20
-19.646082
 30
0.000000
 11
9.387688
 21
-19.551205
 31
0.000000
  0
LINE
  8
1
 10
9.387688
 20
-19.551205
 30
0.000000
 11
9.394296
 21
-19.457691
 31
0.000000
  0
LINE
  8
1
 10
9.394296
 20
-19.457691
 30
0.000000
 11
9.400000
 21
-19.365555
 31
0.000000
  0
LINE
  8
1
 10
9.400000
 20
-19.365555
 30
0.000000
 11
9.404823
 21
-19.274799
 31
0.000000
  0
LINE
  8
1
 10
9.404823
 20
-19.274799
 30
0.000000
 11
9.408792
 21
-19.185434
 31
0.000000
  0
LINE
  8
1
 10
9.408792
 20
-19.185434
 30
0.000000
 11
9.411929
 21
-19.097471
 31
0.000000
  0
LINE
  8
1
 10
9.411929
 20
-19.097471
 30
0.000000
 11
9.414260
 21
-19.010914
 31
0.000000
  0
LINE
  8
1
 10
9.414260
 20
-19.010914
 30
0.000000
 11
9.415809
 21
-18.925770
 31
0.000000
  0
LINE
  8
1
 10
9.415809
 20
-18.925770
 30
0.000000
 11
9.416601
 21
-18.842045
 31
0.000000
  0
LINE
  8
1
 10
9.416601
 20
-18.842045
 30
0.000000
 11
9.416662
 21
-18.759750
 31
0.000000
  0
LINE
  8
1
 10
9.416662
 20
-18.759750
 30
0.000000
 11
9.416017
 21
-18.678888
 31
0.000000
  0
LINE
  8
1
 10
9.416017
 20
-18.678888
 30
0.000000
 11
9.414689
 21
-18.599466
 31
0.000000
  0
LINE
  8
1
 10
9.414689
 20
-18.599466
 30
0.000000
 11
9.412704
 21
-18.521488
 31
0.000000
  0
LINE
  8
1
 10
9.412704
 20
-18.521488
 30
0.000000
 11
9.410089
 21
-18.444963
 31
0.000000
  0
LINE
  8
1
 10
9.410089
 20
-18.444963
 30
0.000000
 11
9.406868
 21
-18.369894
 31
0.000000
  0
LINE
  8
1
 10
9.406868
 20
-18.369894
 30
0.000000
 11
9.403065
 21
-18.296282
 31
0.000000
  0
LINE
  8
1
 10
9.403065
 20
-18.296282
 30
0.000000
 11
9.398706
 21
-18.224138
 31
0.000000
  0
LINE
  8
1
 10
9.398706
 20
-18.224138
 30
0.000000
 11
9.393817
 21
-18.153461
 31
0.000000
  0
LINE
  8
1
 10
9.393817
 20
-18.153461
 30
0.000000
 11
9.388422
 21
-18.084257
 31
0.000000
  0
LINE
  8
1
 10
9.388422
 20
-18.084257
 30
0.000000
 11
9.382547
 21
-18.016527
 31
0.000000
  0
LINE
  8
1
 10
9.382547
 20
-18.016527
 30
0.000000
 11
9.376218
 21
-17.950275
 31
0.000000
  0
LINE
  8
1
 10
9.376218
 20
-17.950275
 30
0.000000
 11
9.369459
 21
-17.885506
 31
0.000000
  0
LINE
  8
1
 10
9.369459
 20
-17.885506
 30
0.000000
 11
9.362296
 21
-17.822222
 31
0.000000
  0
LINE
  8
1
 10
9.362296
 20
-17.822222
 30
0.000000
 11
9.354755
 21
-17.760422
 31
0.000000
  0
LINE
  8
1
 10
9.354755
 20
-17.760422
 30
0.000000
 11
9.346860
 21
-17.700108
 31
0.000000
  0
LINE
  8
1
 10
9.346860
 20
-17.700108
 30
0.000000
 11
9.338638
 21
-17.641285
 31
0.000000
  0
LINE
  8
1
 10
9.338638
 20
-17.641285
 30
0.000000
 11
9.330113
 21
-17.583950
 31
0.000000
  0
LINE
  8
1
 10
9.330113
 20
-17.583950
 30
0.000000
 11
9.321311
 21
-17.528107
 31
0.000000
  0
LINE
  8
1
 10
9.321311
 20
-17.528107
 30
0.000000
 11
9.312257
 21
-17.473753
 31
0.000000
  0
LINE
  8
1
 10
9.312257
 20
-17.473753
 30
0.000000
 11
9.302977
 21
-17.420889
 31
0.000000
  0
LINE
  8
1
 10
9.302977
 20
-17.420889
 30
0.000000
 11
9.293495
 21
-17.369516
 31
0.000000
  0
LINE
  8
1
 10
9.293495
 20
-17.369516
 30
0.000000
 11
9.283837
 21
-17.319635
 31
0.000000
  0
LINE
  8
1
 10
9.283837
 20
-17.319635
 30
0.000000
 11
9.274030
 21
-17.271242
 31
0.000000
  0
LINE
  8
1
 10
9.274030
 20
-17.271242
 30
0.000000
 11
9.264096
 21
-17.224337
 31
0.000000
  0
LINE
  8
1
 10
9.264096
 20
-17.224337
 30
0.000000
 11
9.254063
 21
-17.178915
 31
0.000000
  0
LINE
  8
1
 10
9.254063
 20
-17.178915
 30
0.000000
 11
9.243955
 21
-17.134979
 31
0.000000
  0
LINE
  8
1
 10
9.243955
 20
-17.134979
 30
0.000000
 11
9.233795
 21
-17.092525
 31
0.000000
  0
LINE
  8
1
 10
9.233795
 20
-17.092525
 30
0.000000
 11
9.223613
 21
-17.051552
 31
0.000000
  0
LINE
  8
1
 10
9.223613
 20
-17.051552
 30
0.000000
 11
9.213428
 21
-17.012053
 31
0.000000
  0
LINE
  8
1
 10
9.213428
 20
-17.012053
 30
0.000000
 11
9.203272
 21
-16.974028
 31
0.000000
  0
LINE
  8
1
 10
9.203272
 20
-16.974028
 30
0.000000
 11
9.193163
 21
-16.937471
 31
0.000000
  0
LINE
  8
1
 10
9.193163
 20
-16.937471
 30
0.000000
 11
9.183129
 21
-16.902380
 31
0.000000
  0
LINE
  8
1
 10
9.183129
 20
-16.902380
 30
0.000000
 11
9.173197
 21
-16.868753
 31
0.000000
  0
LINE
  8
1
 10
9.173197
 20
-16.868753
 30
0.000000
 11
9.163387
 21
-16.836582
 31
0.000000
  0
LINE
  8
1
 10
9.163387
 20
-16.836582
 30
0.000000
 11
9.153728
 21
-16.805862
 31
0.000000
  0
LINE
  8
1
 10
9.153728
 20
-16.805862
 30
0.000000
 11
9.144240
 21
-16.776588
 31
0.000000
  0
LINE
  8
1
 10
9.144240
 20
-16.776588
 30
0.000000
 11
9.134953
 21
-16.748758
 31
0.000000
  0
LINE
  8
1
 10
9.134953
 20
-16.748758
 30
0.000000
 11
9.125886
 21
-16.722363
 31
0.000000
  0
LINE
  8
1
 10
9.125886
 20
-16.722363
 30
0.000000
 11
9.117067
 21
-16.697397
 31
0.000000
  0
LINE
  8
1
 10
9.117067
 20
-16.697397
 30
0.000000
 11
9.108519
 21
-16.673855
 31
0.000000
  0
LINE
  8
1
 10
9.108519
 20
-16.673855
 30
0.000000
 11
9.100266
 21
-16.651728
 31
0.000000
  0
LINE
  8
1
 10
9.100266
 20
-16.651728
 30
0.000000
 11
9.092331
 21
-16.631010
 31
0.000000
  0
LINE
  8
1
 10
9.092331
 20
-16.631010
 30
0.000000
 11
9.084741
 21
-16.611696
 31
0.000000
  0
LINE
  8
1
 10
9.084741
 20
-16.611696
 30
0.000000
 11
9.077517
 21
-16.593777
 31
0.000000
  0
LINE
  8
1
 10
9.077517
 20
-16.593777
 30
0.000000
 11
9.070683
 21
-16.577242
 31
0.000000
  0
LINE
  8
1
 10
9.070683
 20
-16.577242
 30
0.000000
 11
9.064263
 21
-16.562086
 31
0.000000
  0
LINE
  8
1
 10
9.064263
 20
-16.562086
 30
0.000000
 11
9.058283
 21
-16.548302
 31
0.000000
  0
LINE
  8
1
 10
9.058283
 20
-16.548302
 30
0.000000
 11
9.052762
 21
-16.535873
 31
0.000000
  0
LINE
  8
1
 10
9.052762
 20
-16.535873
 30
0.000000
 11
9.047727
 21
-16.524801
 31
0.000000
  0
LINE
  8
1
 10
9.047727
 20
-16.524801
 30
0.000000
 11
9.043198
 21
-16.515068
 31
0.000000
  0
LINE
  8
1
 10
9.043198
 20
-16.515068
 30
0.000000
 11
9.039200
 21
-16.506668
 31
0.000000
  0
LINE
  8
1
 10
9.039200
 20
-16.506668
 30
0.000000
 11
9.035755
 21
-16.499590
 31
0.000000
  0
LINE
  8
1
 10
9.035755
 20
-16.499590
 30
0.000000
 11
9.032887
 21
-16.493822
 31
0.000000
  0
LINE
  8
1
 10
9.032887
 20
-16.493822
 30
0.000000
 11
9.030617
 21
-16.489357
 31
0.000000
  0
LINE
  8
1
 10
9.030617
 20
-16.489357
 30
0.000000
 11
9.028968
 21
-16.486183
 31
0.000000
  0
LINE
  8
1
 10
9.028968
 20
-16.486183
 30
0.000000
 11
9.027622
 21
-16.483656
 31
0.000000
  0
LINE
  8
1
 10
9.027622
 20
-16.483656
 30
0.000000
 11
8.406120
 21
-15.348848
 31
0.000000
  0
LINE
  8
1
 10
8.406120
 20
-15.348848
 30
0.000000
 11
10.286242
 21
-14.157798
 31
0.000000
  0
LINE
  8
1
 10
10.286242
 20
-14.157798
 30
0.000000
 11
11.046749
 21
-15.204546
 31
0.000000
  0
LINE
  8
1
 10
11.046749
 20
-15.204546
 30
0.000000
 11
11.048458
 21
-15.206842
 31
0.000000
  0
LINE
  8
1
 10
11.048458
 20
-15.206842
 30
0.000000
 11
11.050625
 21
-15.209689
 31
0.000000
  0
LINE
  8
1
 10
11.050625
 20
-15.209689
 30
0.000000
 11
11.053692
 21
-15.213649
 31
0.000000
  0
LINE
  8
1
 10
11.053692
 20
-15.213649
 30
0.000000
 11
11.057680
 21
-15.218706
 31
0.000000
  0
LINE
  8
1
 10
11.057680
 20
-15.218706
 30
0.000000
 11
11.062609
 21
-15.224846
 31
0.000000
  0
LINE
  8
1
 10
11.062609
 20
-15.224846
 30
0.000000
 11
11.068495
 21
-15.232048
 31
0.000000
  0
LINE
  8
1
 10
11.068495
 20
-15.232048
 30
0.000000
 11
11.075360
 21
-15.240301
 31
0.000000
  0
LINE
  8
1
 10
11.075360
 20
-15.240301
 30
0.000000
 11
11.083220
 21
-15.249584
 31
0.000000
  0
LINE
  8
1
 10
11.083220
 20
-15.249584
 30
0.000000
 11
11.092098
 21
-15.259886
 31
0.000000
  0
LINE
  8
1
 10
11.092098
 20
-15.259886
 30
0.000000
 11
11.102006
 21
-15.271182
 31
0.000000
  0
LINE
  8
1
 10
11.102006
 20
-15.271182
 30
0.000000
 11
11.112967
 21
-15.283462
 31
0.000000
  0
LINE
  8
1
 10
11.112967
 20
-15.283462
 30
0.000000
 11
11.124997
 21
-15.296703
 31
0.000000
  0
LINE
  8
1
 10
11.124997
 20
-15.296703
 30
0.000000
 11
11.138113
 21
-15.310891
 31
0.000000
  0
LINE
  8
1
 10
11.138113
 20
-15.310891
 30
0.000000
 11
11.152333
 21
-15.326006
 31
0.000000
  0
LINE
  8
1
 10
11.152333
 20
-15.326006
 30
0.000000
 11
11.167675
 21
-15.342031
 31
0.000000
  0
LINE
  8
1
 10
11.167675
 20
-15.342031
 30
0.000000
 11
11.184155
 21
-15.358946
 31
0.000000
  0
LINE
  8
1
 10
11.184155
 20
-15.358946
 30
0.000000
 11
11.201788
 21
-15.376733
 31
0.000000
  0
LINE
  8
1
 10
11.201788
 20
-15.376733
 30
0.000000
 11
11.220592
 21
-15.395372
 31
0.000000
  0
LINE
  8
1
 10
11.220592
 20
-15.395372
 30
0.000000
 11
11.240585
 21
-15.414846
 31
0.000000
  0
LINE
  8
1
 10
11.240585
 20
-15.414846
 30
0.000000
 11
11.261780
 21
-15.435135
 31
0.000000
  0
LINE
  8
1
 10
11.261780
 20
-15.435135
 30
0.000000
 11
11.284194
 21
-15.456219
 31
0.000000
  0
LINE
  8
1
 10
11.284194
 20
-15.456219
 30
0.000000
 11
11.307841
 21
-15.478077
 31
0.000000
  0
LINE
  8
1
 10
11.307841
 20
-15.478077
 30
0.000000
 11
11.332739
 21
-15.500690
 31
0.000000
  0
LINE
  8
1
 10
11.332739
 20
-15.500690
 30
0.000000
 11
11.358899
 21
-15.524037
 31
0.000000
  0
LINE
  8
1
 10
11.358899
 20
-15.524037
 30
0.000000
 11
11.386339
 21
-15.548101
 31
0.000000
  0
LINE
  8
1
 10
11.386339
 20
-15.548101
 30
0.000000
 11
11.415073
 21
-15.572859
 31
0.000000
  0
LINE
  8
1
 10
11.415073
 20
-15.572859
 30
0.000000
 11
11.445113
 21
-15.598288
 31
0.000000
  0
LINE
  8
1
 10
11.445113
 20
-15.598288
 30
0.000000
 11
11.476476
 21
-15.624370
 31
0.000000
  0
LINE
  8
1
 10
11.476476
 20
-15.624370
 30
0.000000
 11
11.509171
 21
-15.651082
 31
0.000000
  0
LINE
  8
1
 10
11.509171
 20
-15.651082
 30
0.000000
 11
11.543217
 21
-15.678405
 31
0.000000
  0
LINE
  8
1
 10
11.543217
 20
-15.678405
 30
0.000000
 11
11.578622
 21
-15.706315
 31
0.000000
  0
LINE
  8
1
 10
11.578622
 20
-15.706315
 30
0.000000
 11
11.615401
 21
-15.734792
 31
0.000000
  0
LINE
  8
1
 10
11.615401
 20
-15.734792
 30
0.000000
 11
11.653567
 21
-15.763812
 31
0.000000
  0
LINE
  8
1
 10
11.653567
 20
-15.763812
 30
0.000000
 11
11.693131
 21
-15.793355
 31
0.000000
  0
LINE
  8
1
 10
11.693131
 20
-15.793355
 30
0.000000
 11
11.734106
 21
-15.823398
 31
0.000000
  0
LINE
  8
1
 10
11.734106
 20
-15.823398
 30
0.000000
 11
11.776504
 21
-15.853918
 31
0.000000
  0
LINE
  8
1
 10
11.776504
 20
-15.853918
 30
0.000000
 11
11.820334
 21
-15.884893
 31
0.000000
  0
LINE
  8
1
 10
11.820334
 20
-15.884893
 30
0.000000
 11
11.865610
 21
-15.916301
 31
0.000000
  0
LINE
  8
1
 10
11.865610
 20
-15.916301
 30
0.000000
 11
11.912340
 21
-15.948117
 31
0.000000
  0
LINE
  8
1
 10
11.912340
 20
-15.948117
 30
0.000000
 11
11.960537
 21
-15.980320
 31
0.000000
  0
LINE
  8
1
 10
11.960537
 20
-15.980320
 30
0.000000
 11
12.010209
 21
-16.012884
 31
0.000000
  0
LINE
  8
1
 10
12.010209
 20
-16.012884
 30
0.000000
 11
12.061369
 21
-16.045792
 31
0.000000
  0
LINE
  8
1
 10
12.061369
 20
-16.045792
 30
0.000000
 11
12.114022
 21
-16.079012
 31
0.000000
  0
LINE
  8
1
 10
12.114022
 20
-16.079012
 30
0.000000
 11
12.168181
 21
-16.112524
 31
0.000000
  0
LINE
  8
1
 10
12.168181
 20
-16.112524
 30
0.000000
 11
12.223855
 21
-16.146307
 31
0.000000
  0
LINE
  8
1
 10
12.223855
 20
-16.146307
 30
0.000000
 11
12.281052
 21
-16.180334
 31
0.000000
  0
LINE
  8
1
 10
12.281052
 20
-16.180334
 30
0.000000
 11
12.339778
 21
-16.214582
 31
0.000000
  0
LINE
  8
1
 10
12.339778
 20
-16.214582
 30
0.000000
 11
12.400044
 21
-16.249025
 31
0.000000
  0
LINE
  8
1
 10
12.400044
 20
-16.249025
 30
0.000000
 11
12.461857
 21
-16.283642
 31
0.000000
  0
LINE
  8
1
 10
12.461857
 20
-16.283642
 30
0.000000
 11
12.525225
 21
-16.318405
 31
0.000000
  0
LINE
  8
1
 10
12.525225
 20
-16.318405
 30
0.000000
 11
12.590155
 21
-16.353291
 31
0.000000
  0
LINE
  8
1
 10
12.590155
 20
-16.353291
 30
0.000000
 11
12.656652
 21
-16.388277
 31
0.000000
  0
LINE
  8
1
 10
12.656652
 20
-16.388277
 30
0.000000
 11
12.724726
 21
-16.423334
 31
0.000000
  0
LINE
  8
1
 10
12.724726
 20
-16.423334
 30
0.000000
 11
12.794380
 21
-16.458443
 31
0.000000
  0
LINE
  8
1
 10
12.794380
 20
-16.458443
 30
0.000000
 11
12.865623
 21
-16.493574
 31
0.000000
  0
LINE
  8
1
 10
12.865623
 20
-16.493574
 30
0.000000
 11
12.938457
 21
-16.528706
 31
0.000000
  0
LINE
  8
1
 10
12.938457
 20
-16.528706
 30
0.000000
 11
13.012890
 21
-16.563808
 31
0.000000
  0
LINE
  8
1
 10
13.012890
 20
-16.563808
 30
0.000000
 11
13.088926
 21
-16.598860
 31
0.000000
  0
LINE
  8
1
 10
13.088926
 20
-16.598860
 30
0.000000
 11
13.166572
 21
-16.633837
 31
0.000000
  0
LINE
  8
1
 10
13.166572
 20
-16.633837
 30
0.000000
 11
13.245829
 21
-16.668709
 31
0.000000
  0
LINE
  8
1
 10
13.245829
 20
-16.668709
 30
0.000000
 11
13.326700
 21
-16.703453
 31
0.000000
  0
LINE
  8
1
 10
13.326700
 20
-16.703453
 30
0.000000
 11
13.409194
 21
-16.738045
 31
0.000000
  0
LINE
  8
1
 10
13.409194
 20
-16.738045
 30
0.000000
 11
13.493310
 21
-16.772455
 31
0.000000
  0
LINE
  8
1
 10
13.493310
 20
-16.772455
 30
0.000000
 11
13.579052
 21
-16.806662
 31
0.000000
  0
LINE
  8
1
 10
13.579052
 20
-16.806662
 30
0.000000
 11
13.666425
 21
-16.840639
 31
0.000000
  0
LINE
  8
1
 10
13.666425
 20
-16.840639
 30
0.000000
 11
13.755428
 21
-16.874357
 31
0.000000
  0
LINE
  8
1
 10
13.755428
 20
-16.874357
 30
0.000000
 11
13.846065
 21
-16.907795
 31
0.000000
  0
LINE
  8
1
 10
13.846065
 20
-16.907795
 30
0.000000
 11
13.938337
 21
-16.940922
 31
0.000000
  0
LINE
  8
1
 10
13.938337
 20
-16.940922
 30
0.000000
 11
14.006904
 21
-16.964867
 31
0.000000
  0
LINE
  8
1
 10
14.006904
 20
-16.964867
 30
0.000000
 11
15.049885
 21
-16.046837
 31
0.000000
  0
LINE
  8
1
 10
15.049885
 20
-16.046837
 30
0.000000
 11
15.034837
 21
-15.975787
 31
0.000000
  0
LINE
  8
1
 10
15.034837
 20
-15.975787
 30
0.000000
 11
15.013688
 21
-15.880056
 31
0.000000
  0
LINE
  8
1
 10
15.013688
 20
-15.880056
 30
0.000000
 11
14.992025
 21
-15.785909
 31
0.000000
  0
LINE
  8
1
 10
14.992025
 20
-15.785909
 30
0.000000
 11
14.969876
 21
-15.693345
 31
0.000000
  0
LINE
  8
1
 10
14.969876
 20
-15.693345
 30
0.000000
 11
14.947264
 21
-15.602367
 31
0.000000
  0
LINE
  8
1
 10
14.947264
 20
-15.602367
 30
0.000000
 11
14.924216
 21
-15.512977
 31
0.000000
  0
LINE
  8
1
 10
14.924216
 20
-15.512977
 30
0.000000
 11
14.900759
 21
-15.425173
 31
0.000000
  0
LINE
  8
1
 10
14.900759
 20
-15.425173
 30
0.000000
 11
14.876918
 21
-15.338957
 31
0.000000
  0
LINE
  8
1
 10
14.876918
 20
-15.338957
 30
0.000000
 11
14.852719
 21
-15.254329
 31
0.000000
  0
LINE
  8
1
 10
14.852719
 20
-15.254329
 30
0.000000
 11
14.828188
 21
-15.171287
 31
0.000000
  0
LINE
  8
1
 10
14.828188
 20
-15.171287
 30
0.000000
 11
14.803350
 21
-15.089830
 31
0.000000
  0
LINE
  8
1
 10
14.803350
 20
-15.089830
 30
0.000000
 11
14.778232
 21
-15.009960
 31
0.000000
  0
LINE
  8
1
 10
14.778232
 20
-15.009960
 30
0.000000
 11
14.752860
 21
-14.931674
 31
0.000000
  0
LINE
  8
1
 10
14.752860
 20
-14.931674
 30
0.000000
 11
14.727259
 21
-14.854970
 31
0.000000
  0
LINE
  8
1
 10
14.727259
 20
-14.854970
 30
0.000000
 11
14.701453
 21
-14.779844
 31
0.000000
  0
LINE
  8
1
 10
14.701453
 20
-14.779844
 30
0.000000
 11
14.675469
 21
-14.706297
 31
0.000000
  0
LINE
  8
1
 10
14.675469
 20
-14.706297
 30
0.000000
 11
14.649335
 21
-14.634325
 31
0.000000
  0
LINE
  8
1
 10
14.649335
 20
-14.634325
 30
0.000000
 11
14.623073
 21
-14.563925
 31
0.000000
  0
LINE
  8
1
 10
14.623073
 20
-14.563925
 30
0.000000
 11
14.596708
 21
-14.495091
 31
0.000000
  0
LINE
  8
1
 10
14.596708
 20
-14.495091
 30
0.000000
 11
14.570269
 21
-14.427824
 31
0.000000
  0
LINE
  8
1
 10
14.570269
 20
-14.427824
 30
0.000000
 11
14.543779
 21
-14.362119
 31
0.000000
  0
LINE
  8
1
 10
14.543779
 20
-14.362119
 30
0.000000
 11
14.517262
 21
-14.297968
 31
0.000000
  0
LINE
  8
1
 10
14.517262
 20
-14.297968
 30
0.000000
 11
14.490746
 21
-14.235369
 31
0.000000
  0
LINE
  8
1
 10
14.490746
 20
-14.235369
 30
0.000000
 11
14.464253
 21
-14.174316
 31
0.000000
  0
LINE
  8
1
 10
14.464253
 20
-14.174316
 30
0.000000
 11
14.437810
 21
-14.114805
 31
0.000000
  0
LINE
  8
1
 10
14.437810
 20
-14.114805
 30
0.000000
 11
14.411442
 21
-14.056830
 31
0.000000
  0
LINE
  8
1
 10
14.411442
 20
-14.056830
 30
0.000000
 11
14.385173
 21
-14.000386
 31
0.000000
  0
LINE
  8
1
 10
14.385173
 20
-14.000386
 30
0.000000
 11
14.359027
 21
-13.945464
 31
0.000000
  0
LINE
  8
1
 10
14.359027
 20
-13.945464
 30
0.000000
 11
14.333030
 21
-13.892061
 31
0.000000
  0
LINE
  8
1
 10
14.333030
 20
-13.892061
 30
0.000000
 11
14.307204
 21
-13.840166
 31
0.000000
  0
LINE
  8
1
 10
14.307204
 20
-13.840166
 30
0.000000
 11
14.281576
 21
-13.789776
 31
0.000000
  0
LINE
  8
1
 10
14.281576
 20
-13.789776
 30
0.000000
 11
14.256169
 21
-13.740880
 31
0.000000
  0
LINE
  8
1
 10
14.256169
 20
-13.740880
 30
0.000000
 11
14.231008
 21
-13.693472
 31
0.000000
  0
LINE
  8
1
 10
14.231008
 20
-13.693472
 30
0.000000
 11
14.206115
 21
-13.647544
 31
0.000000
  0
LINE
  8
1
 10
14.206115
 20
-13.647544
 30
0.000000
 11
14.181516
 21
-13.603087
 31
0.000000
  0
LINE
  8
1
 10
14.181516
 20
-13.603087
 30
0.000000
 11
14.157234
 21
-13.560094
 31
0.000000
  0
LINE
  8
1
 10
14.157234
 20
-13.560094
 30
0.000000
 11
14.133292
 21
-13.518554
 31
0.000000
  0
LINE
  8
1
 10
14.133292
 20
-13.518554
 30
0.000000
 11
14.109714
 21
-13.478456
 31
0.000000
  0
LINE
  8
1
 10
14.109714
 20
-13.478456
 30
0.000000
 11
14.086523
 21
-13.439795
 31
0.000000
  0
LINE
  8
1
 10
14.086523
 20
-13.439795
 30
0.000000
 11
14.063742
 21
-13.402557
 31
0.000000
  0
LINE
  8
1
 10
14.063742
 20
-13.402557
 30
0.000000
 11
14.041396
 21
-13.366735
 31
0.000000
  0
LINE
  8
1
 10
14.041396
 20
-13.366735
 30
0.000000
 11
14.019505
 21
-13.332316
 31
0.000000
  0
LINE
  8
1
 10
14.019505
 20
-13.332316
 30
0.000000
 11
13.998095
 21
-13.299293
 31
0.000000
  0
LINE
  8
1
 10
13.998095
 20
-13.299293
 30
0.000000
 11
13.977184
 21
-13.267649
 31
0.000000
  0
LINE
  8
1
 10
13.977184
 20
-13.267649
 30
0.000000
 11
13.956799
 21
-13.237376
 31
0.000000
  0
LINE
  8
1
 10
13.956799
 20
-13.237376
 30
0.000000
 11
13.936959
 21
-13.208464
 31
0.000000
  0
LINE
  8
1
 10
13.936959
 20
-13.208464
 30
0.000000
 11
13.917689
 21
-13.180898
 31
0.000000
  0
LINE
  8
1
 10
13.917689
 20
-13.180898
 30
0.000000
 11
13.899009
 21
-13.154667
 31
0.000000
  0
LINE
  8
1
 10
13.899009
 20
-13.154667
 30
0.000000
 11
13.880940
 21
-13.129759
 31
0.000000
  0
LINE
  8
1
 10
13.880940
 20
-13.129759
 30
0.000000
 11
13.863506
 21
-13.106160
 31
0.000000
  0
LINE
  8
1
 10
13.863506
 20
-13.106160
 30
0.000000
 11
13.846727
 21
-13.083858
 31
0.000000
  0
LINE
  8
1
 10
13.846727
 20
-13.083858
 30
0.000000
 11
13.830626
 21
-13.062840
 31
0.000000
  0
LINE
  8
1
 10
13.830626
 20
-13.062840
 30
0.000000
 11
13.815220
 21
-13.043091
 31
0.000000
  0
LINE
  8
1
 10
13.815220
 20
-13.043091
 30
0.000000
 11
13.800533
 21
-13.024597
 31
0.000000
  0
LINE
  8
1
 10
13.800533
 20
-13.024597
 30
0.000000
 11
13.786586
 21
-13.007346
 31
0.000000
  0
LINE
  8
1
 10
13.786586
 20
-13.007346
 30
0.000000
 11
13.773398
 21
-12.991323
 31
0.000000
  0
LINE
  8
1
 10
13.773398
 20
-12.991323
 30
0.000000
 11
13.760990
 21
-12.976512
 31
0.000000
  0
LINE
  8
1
 10
13.760990
 20
-12.976512
 30
0.000000
 11
13.749381
 21
-12.962898
 31
0.000000
  0
LINE
  8
1
 10
13.749381
 20
-12.962898
 30
0.000000
 11
13.738593
 21
-12.950468
 31
0.000000
  0
LINE
  8
1
 10
13.738593
 20
-12.950468
 30
0.000000
 11
13.728645
 21
-12.939206
 31
0.000000
  0
LINE
  8
1
 10
13.728645
 20
-12.939206
 30
0.000000
 11
13.719554
 21
-12.929092
 31
0.000000
  0
LINE
  8
1
 10
13.719554
 20
-12.929092
 30
0.000000
 11
13.711344
 21
-12.920117
 31
0.000000
  0
LINE
  8
1
 10
13.711344
 20
-12.920117
 30
0.000000
 11
13.704029
 21
-12.912261
 31
0.000000
  0
LINE
  8
1
 10
13.704029
 20
-12.912261
 30
0.000000
 11
13.697632
 21
-12.905508
 31
0.000000
  0
LINE
  8
1
 10
13.697632
 20
-12.905508
 30
0.000000
 11
13.692167
 21
-12.899839
 31
0.000000
  0
LINE
  8
1
 10
13.692167
 20
-12.899839
 30
0.000000
 11
13.687657
 21
-12.895242
 31
0.000000
  0
LINE
  8
1
 10
13.687657
 20
-12.895242
 30
0.000000
 11
13.684118
 21
-12.891697
 31
0.000000
  0
LINE
  8
1
 10
13.684118
 20
-12.891697
 30
0.000000
 11
13.681570
 21
-12.889187
 31
0.000000
  0
LINE
  8
1
 10
13.681570
 20
-12.889187
 30
0.000000
 11
13.679509
 21
-12.887199
 31
0.000000
  0
LINE
  8
1
 10
13.679509
 20
-12.887199
 30
0.000000
 11
12.737751
 21
-11.999988
 31
0.000000
  0
LINE
  8
1
 10
12.737751
 20
-11.999988
 30
0.000000
 11
14.157798
 21
-10.286242
 31
0.000000
  0
LINE
  8
1
 10
14.157798
 20
-10.286242
 30
0.000000
 11
15.204546
 21
-11.046749
 31
0.000000
  0
LINE
  8
1
 10
15.204546
 20
-11.046749
 30
0.000000
 11
15.206882
 21
-11.048405
 31
0.000000
  0
LINE
  8
1
 10
15.206882
 20
-11.048405
 30
0.000000
 11
15.209821
 21
-11.050443
 31
0.000000
  0
LINE
  8
1
 10
15.209821
 20
-11.050443
 30
0.000000
 11
15.213963
 21
-11.053261
 31
0.000000
  0
LINE
  8
1
 10
15.213963
 20
-11.053261
 30
0.000000
 11
15.219317
 21
-11.056838
 31
0.000000
  0
LINE
  8
1
 10
15.219317
 20
-11.056838
 30
0.000000
 11
15.225903
 21
-11.061154
 31
0.000000
  0
LINE
  8
1
 10
15.225903
 20
-11.061154
 30
0.000000
 11
15.233727
 21
-11.066185
 31
0.000000
  0
LINE
  8
1
 10
15.233727
 20
-11.066185
 30
0.000000
 11
15.242805
 21
-11.071913
 31
0.000000
  0
LINE
  8
1
 10
15.242805
 20
-11.071913
 30
0.000000
 11
15.253150
 21
-11.078313
 31
0.000000
  0
LINE
  8
1
 10
15.253150
 20
-11.078313
 30
0.000000
 11
15.264776
 21
-11.085366
 31
0.000000
  0
LINE
  8
1
 10
15.264776
 20
-11.085366
 30
0.000000
 11
15.277691
 21
-11.093048
 31
0.000000
  0
LINE
  8
1
 10
15.277691
 20
-11.093048
 30
0.000000
 11
15.291909
 21
-11.101339
 31
0.000000
  0
LINE
  8
1
 10
15.291909
 20
-11.101339
 30
0.000000
 11
15.307443
 21
-11.110216
 31
0.000000
  0
LINE
  8
1
 10
15.307443
 20
-11.110216
 30
0.000000
 11
15.324301
 21
-11.119657
 31
0.000000
  0
LINE
  8
1
 10
15.324301
 20
-11.119657
 30
0.000000
 11
15.342496
 21
-11.129637
 31
0.000000
  0
LINE
  8
1
 10
15.342496
 20
-11.129637
 30
0.000000
 11
15.362039
 21
-11.140137
 31
0.000000
  0
LINE
  8
1
 10
15.362039
 20
-11.140137
 30
0.000000
 11
15.382938
 21
-11.151132
 31
0.000000
  0
LINE
  8
1
 10
15.382938
 20
-11.151132
 30
0.000000
 11
15.405206
 21
-11.162599
 31
0.000000
  0
LINE
  8
1
 10
15.405206
 20
-11.162599
 30
0.000000
 11
15.428850
 21
-11.174515
 31
0.000000
  0
LINE
  8
1
 10
15.428850
 20
-11.174515
 30
0.000000
 11
15.453881
 21
-11.186858
 31
0.000000
  0
LINE
  8
1
 10
15.453881
 20
-11.186858
 30
0.000000
 11
15.480309
 21
-11.199604
 31
0.000000
  0
LINE
  8
1
 10
15.480309
 20
-11.199604
 30
0.000000
 11
15.508141
 21
-11.212729
 31
0.000000
  0
LINE
  8
1
 10
15.508141
 20
-11.212729
 30
0.000000
 11
15.537385
 21
-11.226211
 31
0.000000
  0
LINE
  8
1
 10
15.537385
 20
-11.226211
 30
0.000000
 11
15.568051
 21
-11.240023
 31
0.000000
  0
LINE
  8
1
 10
15.568051
 20
-11.240023
 30
0.000000
 11
15.600146
 21
-11.254144
 31
0.000000
  0
LINE
  8
1
 10
15.600146
 20
-11.254144
 30
0.000000
 11
15.633680
 21
-11.268550
 31
0.000000
  0
LINE
  8
1
 10
15.633680
 20
-11.268550
 30
0.000000
 11
15.668658
 21
-11.283216
 31
0.000000
  0
LINE
  8
1
 10
15.668658
 20
-11.283216
 30
0.000000
 11
15.705086
 21
-11.298118
 31
0.000000
  0
LINE
  8
1
 10
15.705086
 20
-11.298118
 30
0.000000
 11
15.742972
 21
-11.313232
 31
0.000000
  0
LINE
  8
1
 10
15.742972
 20
-11.313232
 30
0.000000
 11
15.782323
 21
-11.328533
 31
0.000000
  0
LINE
  8
1
 10
15.782323
 20
-11.328533
 30
0.000000
 11
15.823145
 21
-11.343999
 31
0.000000
  0
LINE
  8
1
 10
15.823145
 20
-11.343999
 30
0.000000
 11
15.865442
 21
-11.359602
 31
0.000000
  0
LINE
  8
1
 10
15.865442
 20
-11.359602
 30
0.000000
 11
15.909222
 21
-11.375319
 31
0.000000
  0
LINE
  8
1
 10
15.909222
 20
-11.375319
 30
0.000000
 11
15.954488
 21
-11.391126
 31
0.000000
  0
LINE
  8
1
 10
15.954488
 20
-11.391126
 30
0.000000
 11
16.001244
 21
-11.406996
 31
0.000000
  0
LINE
  8
1
 10
16.001244
 20
-11.406996
 30
0.000000
 11
16.049498
 21
-11.422907
 31
0.000000
  0
LINE
  8
1
 10
16.049498
 20
-11.422907
 30
0.000000
 11
16.099251
 21
-11.438831
 31
0.000000
  0
LINE
  8
1
 10
16.099251
 20
-11.438831
 30
0.000000
 11
16.150509
 21
-11.454747
 31
0.000000
  0
LINE
  8
1
 10
16.150509
 20
-11.454747
 30
0.000000
 11
16.203274
 21
-11.470626
 31
0.000000
  0
LINE
  8
1
 10
16.203274
 20
-11.470626
 30
0.000000
 11
16.257549
 21
-11.486444
 31
0.000000
  0
LINE
  8
1
 10
16.257549
 20
-11.486444
 30
0.000000
 11
16.313337
 21
-11.502178
 31
0.000000
  0
LINE
  8
1
 10
16.313337
 20
-11.502178
 30
0.000000
 11
16.370642
 21
-11.517799
 31
0.000000
  0
LINE
  8
1
 10
16.370642
 20
-11.517799
 30
0.000000
 11
16.429466
 21
-11.533286
 31
0.000000
  0
LINE
  8
1
 10
16.429466
 20
-11.533286
 30
0.000000
 11
16.489809
 21
-11.548610
 31
0.000000
  0
LINE
  8
1
 10
16.489809
 20
-11.548610
 30
0.000000
 11
16.551672
 21
-11.563746
 31
0.000000
  0
LINE
  8
1
 10
16.551672
 20
-11.563746
 30
0.000000
 11
16.615061
 21
-11.578671
 31
0.000000
  0
LINE
  8
1
 10
16.615061
 20
-11.578671
 30
0.000000
 11
16.679972
 21
-11.593359
 31
0.000000
  0
LINE
  8
1
 10
16.679972
 20
-11.593359
 30
0.000000
 11
16.746408
 21
-11.607782
 31
0.000000
  0
LINE
  8
1
 10
16.746408
 20
-11.607782
 30
0.000000
 11
16.814369
 21
-11.621917
 31
0.000000
  0
LINE
  8
1
 10
16.814369
 20
-11.621917
 30
0.000000
 11
16.883852
 21
-11.635736
 31
0.000000
  0
LINE
  8
1
 10
16.883852
 20
-11.635736
 30
0.000000
 11
16.954861
 21
-11.649217
 31
0.000000
  0
LINE
  8
1
 10
16.954861
 20
-11.649217
 30
0.000000
 11
17.027393
 21
-11.662333
 31
0.000000
  0
LINE
  8
1
 10
17.027393
 20
-11.662333
 30
0.000000
 11
17.101448
 21
-11.675056
 31
0.000000
  0
LINE
  8
1
 10
17.101448
 20
-11.675056
 30
0.000000
 11
17.177023
 21
-11.687363
 31
0.000000
  0
LINE
  8
1
 10
17.177023
 20
-11.687363
 30
0.000000
 11
17.254118
 21
-11.699228
 31
0.000000
  0
LINE
  8
1
 10
17.254118
 20
-11.699228
 30
0.000000
 11
17.332729
 21
-11.710626
 31
0.000000
  0
LINE
  8
1
 10
17.332729
 20
-11.710626
 30
0.000000
 11
17.412855
 21
-11.721529
 31
0.000000
  0
LINE
  8
1
 10
17.412855
 20
-11.721529
 30
0.000000
 11
17.494492
 21
-11.731913
 31
0.000000
  0
LINE
  8
1
 10
17.494492
 20
-11.731913
 30
0.000000
 11
17.577639
 21
-11.741754
 31
0.000000
  0
LINE
  8
1
 10
17.577639
 20
-11.741754
 30
0.000000
 11
17.662292
 21
-11.751023
 31
0.000000
  0
LINE
  8
1
 10
17.662292
 20
-11.751023
 30
0.000000
 11
17.748446
 21
-11.759698
 31
0.000000
  0
LINE
  8
1
 10
17.748446
 20
-11.759698
 30
0.000000
 11
17.836096
 21
-11.767750
 31
0.000000
  0
LINE
  8
1
 10
17.836096
 20
-11.767750
 30
0.000000
 11
17.925241
 21
-11.775157
 31
0.000000
  0
LINE
  8
1
 10
17.925241
 20
-11.775157
 30
0.000000
 11
18.015875
 21
-11.781891
 31
0.000000
  0
LINE
  8
1
 10
18.015875
 20
-11.781891
 30
0.000000
 11
18.107990
 21
-11.787927
 31
0.000000
  0
LINE
  8
1
 10
18.107990
 20
-11.787927
 30
0.000000
 11
18.201586
 21
-11.793242
 31
0.000000
  0
LINE
  8
1
 10
18.201586
 20
-11.793242
 30
0.000000
 11
18.296652
 21
-11.797806
 31
0.000000
  0
LINE
  8
1
 10
18.296652
 20
-11.797806
 30
0.000000
 11
18.393187
 21
-11.801598
 31
0.000000
  0
LINE
  8
1
 10
18.393187
 20
-11.801598
 30
0.000000
 11
18.491180
 21
-11.804591
 31
0.000000
  0
LINE
  8
1
 10
18.491180
 20
-11.804591
 30
0.000000
 11
18.563789
 21
-11.806175
 31
0.000000
  0
LINE
  8
1
 10
18.563789
 20
-11.806175
 30
0.000000
 11
19.272036
 21
-10.610780
 31
0.000000
  0
LINE
  8
1
 10
19.272036
 20
-10.610780
 30
0.000000
 11
19.235769
 21
-10.547856
 31
0.000000
  0
LINE
  8
1
 10
19.235769
 20
-10.547856
 30
0.000000
 11
19.186073
 21
-10.463346
 31
0.000000
  0
LINE
  8
1
 10
19.186073
 20
-10.463346
 30
0.000000
 11
19.136377
 21
-10.380501
 31
0.000000
  0
LINE
  8
1
 10
19.136377
 20
-10.380501
 30
0.000000
 11
19.086708
 21
-10.299313
 31
0.000000
  0
LINE
  8
1
 10
19.086708
 20
-10.299313
 30
0.000000
 11
19.037088
 21
-10.219775
 31
0.000000
  0
LINE
  8
1
 10
19.037088
 20
-10.219775
 30
0.000000
 11
18.987547
 21
-10.141881
 31
0.000000
  0
LINE
  8
1
 10
18.987547
 20
-10.141881
 30
0.000000
 11
18.938105
 21
-10.065624
 31
0.000000
  0
LINE
  8
1
 10
18.938105
 20
-10.065624
 30
0.000000
 11
18.888788
 21
-9.990994
 31
0.000000
  0
LINE
  8
1
 10
18.888788
 20
-9.990994
 30
0.000000
 11
18.839622
 21
-9.917986
 31
0.000000
  0
LINE
  8
1
 10
18.839622
 20
-9.917986
 30
0.000000
 11
18.790630
 21
-9.846589
 31
0.000000
  0
LINE
  8
1
 10
18.790630
 20
-9.846589
 30
0.000000
 11
18.741837
 21
-9.776795
 31
0.000000
  0
LINE
  8
1
 10
18.741837
 20
-9.776795
 30
0.000000
 11
18.693266
 21
-9.708596
 31
0.000000
  0
LINE
  8
1
 10
18.693266
 20
-9.708596
 30
0.000000
 11
18.644945
 21
-9.641982
 31
0.000000
  0
LINE
  8
1
 10
18.644945
 20
-9.641982
 30
0.000000
 11
18.596893
 21
-9.576942
 31
0.000000
  0
LINE
  8
1
 10
18.596893
 20
-9.576942
 30
0.000000
 11
18.549135
 21
-9.513469
 31
0.000000
  0
LINE
  8
1
 10
18.549135
 20
-9.513469
 30
0.000000
 11
18.501696
 21
-9.451550
 31
0.000000
  0
LINE
  8
1
 10
18.501696
 20
-9.451550
 30
0.000000
 11
18.454599
 21
-9.391177
 31
0.000000
  0
LINE
  8
1
 10
18.454599
 20
-9.391177
 30
0.000000
 11
18.407867
 21
-9.332337
 31
0.000000
  0
LINE
  8
1
 10
18.407867
 20
-9.332337
 30
0.000000
 11
18.361525
 21
-9.275021
 31
0.000000
  0
LINE
  8
1
 10
18.361525
 20
-9.275021
 30
0.000000
 11
18.315592
 21
-9.219216
 31
0.000000
  0
LINE
  8
1
 10
18.315592
 20
-9.219216
 30
0.000000
 11
18.270094
 21
-9.164911
 31
0.000000
  0
LINE
  8
1
 10
18.270094
 20
-9.164911
 30
0.000000
 11
18.225052
 21
-9.112095
 31
0.000000
  0
LINE
  8
1
 10
18.225052
 20
-9.112095
 30
0.000000
 11
18.180489
 21
-9.060754
 31
0.000000
  0
LINE
  8
1
 10
18.180489
 20
-9.060754
 30
0.000000
 11
18.136427
 21
-9.010876
 31
0.000000
  0
LINE
  8
1
 10
18.136427
 20
-9.010876
 30
0.000000
 11
18.092888
 21
-8.962449
 31
0.000000
  0
LINE
  8
1
 10
18.092888
 20
-8.962449
 30
0.000000
 11
18.049894
 21
-8.915461
 31
0.000000
  0
LINE
  8
1
 10
18.049894
 20
-8.915461
 30
0.000000
 11
18.007469
 21
-8.869896
 31
0.000000
  0
LINE
  8
1
 10
18.007469
 20
-8.869896
 30
0.000000
 11
17.965631
 21
-8.825742
 31
0.000000
  0
LINE
  8
1
 10
17.965631
 20
-8.825742
 30
0.000000
 11
17.924404
 21
-8.782986
 31
0.000000
  0
LINE
  8
1
 10
17.924404
 20
-8.782986
 30
0.000000
 11
17.883806
 21
-8.741611
 31
0.000000
  0
LINE
  8
1
 10
17.883806
 20
-8.741611
 30
0.000000
 11
17.843861
 21
-8.701607
 31
0.000000
  0
LINE
  8
1
 10
17.843861
 20
-8.701607
 30
0.000000
 11
17.804588
 21
-8.662955
 31
0.000000
  0
LINE
  8
1
 10
17.804588
 20
-8.662955
 30
0.000000
 11
17.766008
 21
-8.625643
 31
0.000000
  0
LINE
  8
1
 10
17.766008
 20
-8.625643
 30
0.000000
 11
17.728142
 21
-8.589655
 31
0.000000
  0
LINE
  8
1
 10
17.728142
 20
-8.589655
 30
0.000000
 11
17.691008
 21
-8.554976
 31
0.000000
  0
LINE
  8
1
 10
17.691008
 20
-8.554976
 30
0.000000
 11
17.654629
 21
-8.521590
 31
0.000000
  0
LINE
  8
1
 10
17.654629
 20
-8.521590
 30
0.000000
 11
17.619022
 21
-8.489481
 31
0.000000
  0
LINE
  8
1
 10
17.619022
 20
-8.489481
 30
0.000000
 11
17.584208
 21
-8.458633
 31
0.000000
  0
LINE
  8
1
 10
17.584208
 20
-8.458633
 30
0.000000
 11
17.550205
 21
-8.429030
 31
0.000000
  0
LINE
  8
1
 10
17.550205
 20
-8.429030
 30
0.000000
 11
17.517031
 21
-8.400655
 31
0.000000
  0
LINE
  8
1
 10
17.517031
 20
-8.400655
 30
0.000000
 11
17.484709
 21
-8.373491
 31
0.000000
  0
LINE
  8
1
 10
17.484709
 20
-8.373491
 30
0.000000
 11
17.453253
 21
-8.347522
 31
0.000000
  0
LINE
  8
1
 10
17.453253
 20
-8.347522
 30
0.000000
 11
17.422686
 21
-8.322730
 31
0.000000
  0
LINE
  8
1
 10
17.422686
 20
-8.322730
 30
0.000000
 11
17.393021
 21
-8.299097
 31
0.000000
  0
LINE
  8
1
 10
17.393021
 20
-8.299097
 30
0.000000
 11
17.364277
 21
-8.276606
 31
0.000000
  0
LINE
  8
1
 10
17.364277
 20
-8.276606
 30
0.000000
 11
17.336475
 21
-8.255239
 31
0.000000
  0
LINE
  8
1
 10
17.336475
 20
-8.255239
 30
0.000000
 11
17.309629
 21
-8.234977
 31
0.000000
  0
LINE
  8
1
 10
17.309629
 20
-8.234977
 30
0.000000
 11
17.283758
 21
-8.215802
 31
0.000000
  0
LINE
  8
1
 10
17.283758
 20
-8.215802
 30
0.000000
 11
17.258877
 21
-8.197696
 31
0.000000
  0
LINE
  8
1
 10
17.258877
 20
-8.197696
 30
0.000000
 11
17.235004
 21
-8.180640
 31
0.000000
  0
LINE
  8
1
 10
17.235004
 20
-8.180640
 30
0.000000
 11
17.212154
 21
-8.164615
 31
0.000000
  0
LINE
  8
1
 10
17.212154
 20
-8.164615
 30
0.000000
 11
17.190346
 21
-8.149601
 31
0.000000
  0
LINE
  8
1
 10
17.190346
 20
-8.149601
 30
0.000000
 11
17.169592
 21
-8.135578
 31
0.000000
  0
LINE
  8
1
 10
17.169592
 20
-8.135578
 30
0.000000
 11
17.149910
 21
-8.122529
 31
0.000000
  0
LINE
  8
1
 10
17.149910
 20
-8.122529
 30
0.000000
 11
17.131313
 21
-8.110432
 31
0.000000
  0
LINE
  8
1
 10
17.131313
 20
-8.110432
 30
0.000000
 11
17.113819
 21
-8.099268
 31
0.000000
  0
LINE
  8
1
 10
17.113819
 20
-8.099268
 30
0.000000
 11
17.097441
 21
-8.089017
 31
0.000000
  0
LINE
  8
1
 10
17.097441
 20
-8.089017
 30
0.000000
 11
17.082195
 21
-8.079657
 31
0.000000
  0
LINE
  8
1
 10
17.082195
 20
-8.079657
 30
0.000000
 11
17.068092
 21
-8.071168
 31
0.000000
  0
LINE
  8
1
 10
17.068092
 20
-8.071168
 30
0.000000
 11
17.055151
 21
-8.063532
 31
0.000000
  0
LINE
  8
1
 10
17.055151
 20
-8.063532
 30
0.000000
 11
17.043381
 21
-8.056723
 31
0.000000
  0
LINE
  8
1
 10
17.043381
 20
-8.056723
 30
0.000000
 11
17.032799
 21
-8.050724
 31
0.000000
  0
LINE
  8
1
 10
17.032799
 20
-8.050724
 30
0.000000
 11
17.023415
 21
-8.045512
 31
0.000000
  0
LINE
  8
1
 10
17.023415
 20
-8.045512
 30
0.000000
 11
17.015244
 21
-8.041067
 31
0.000000
  0
LINE
  8
1
 10
17.015244
 20
-8.041067
 30
0.000000
 11
17.008295
 21
-8.037365
 31
0.000000
  0
LINE
  8
1
 10
17.008295
 20
-8.037365
 30
0.000000
 11
17.002584
 21
-8.034386
 31
0.000000
  0
LINE
  8
1
 10
17.002584
 20
-8.034386
 30
0.000000
 11
16.998123
 21
-8.032107
 31
0.000000
  0
LINE
  8
1
 10
16.998123
 20
-8.032107
 30
0.000000
 11
16.994923
 21
-8.030508
 31
0.000000
  0
LINE
  8
1
 10
16.994923
 20
-8.030508
 30
0.000000
 11
16.992350
 21
-8.029255
 31
0.000000
  0
LINE
  8
1
 10
16.992350
 20
-8.029255
 30
0.000000
 11
15.822521
 21
-7.476485
 31
0.000000
  0
LINE
  8
1
 10
15.822521
 20
-7.476485
 30
0.000000
 11
16.643490
 21
-5.407797
 31
0.000000
  0
LINE
  8
1
 10
16.643490
 20
-5.407797
 30
0.000000
 11
17.874016
 21
-5.807620
 31
0.000000
  0
LINE
  8
1
 10
17.874016
 20
-5.807620
 30
0.000000
 11
17.876749
 21
-5.808473
 31
0.000000
  0
LINE
  8
1
 10
17.876749
 20
-5.808473
 30
0.000000
 11
17.880175
 21
-5.809503
 31
0.000000
  0
LINE
  8
1
 10
17.880175
 20
-5.809503
 30
0.000000
 11
17.884983
 21
-5.810904
 31
0.000000
  0
LINE
  8
1
 10
17.884983
 20
-5.810904
 30
0.000000
 11
17.891182
 21
-5.812651
 31
0.000000
  0
LINE
  8
1
 10
17.891182
 20
-5.812651
 30
0.000000
 11
17.898779
 21
-5.814721
 31
0.000000
  0
LINE
  8
1
 10
17.898779
 20
-5.814721
 30
0.000000
 11
17.907774
 21
-5.817088
 31
0.000000
  0
LINE
  8
1
 10
17.907774
 20
-5.817088
 30
0.000000
 11
17.918179
 21
-5.819729
 31
0.000000
  0
LINE
  8
1
 10
17.918179
 20
-5.819729
 30
0.000000
 11
17.929995
 21
-5.822619
 31
0.000000
  0
LINE
  8
1
 10
17.929995
 20
-5.822619
 30
0.000000
 11
17.943232
 21
-5.825735
 31
0.000000
  0
LINE
  8
1
 10
17.943232
 20
-5.825735
 30
0.000000
 11
17.957888
 21
-5.829051
 31
0.000000
  0
LINE
  8
1
 10
17.957888
 20
-5.829051
 30
0.000000
 11
17.973972
 21
-5.832541
 31
0.000000
  0
LINE
  8
1
 10
17.973972
 20
-5.832541
 30
0.000000
 11
17.991489
 21
-5.836184
 31
0.000000
  0
LINE
  8
1
 10
17.991489
 20
-5.836184
 30
0.000000
 11
18.010439
 21
-5.839952
 31
0.000000
  0
LINE
  8
1
 10
18.010439
 20
-5.839952
 30
0.000000
 11
18.030828
 21
-5.843822
 31
0.000000
  0
LINE
  8
1
 10
18.030828
 20
-5.843822
 30
0.000000
 11
18.052658
 21
-5.847769
 31
0.000000
  0
LINE
  8
1
 10
18.052658
 20
-5.847769
 30
0.000000
 11
18.075933
 21
-5.851767
 31
0.000000
  0
LINE
  8
1
 10
18.075933
 20
-5.851767
 30
0.000000
 11
18.100655
 21
-5.855793
 31
0.000000
  0
LINE
  8
1
 10
18.100655
 20
-5.855793
 30
0.000000
 11
18.126823
 21
-5.859819
 31
0.000000
  0
LINE
  8
1
 10
18.126823
 20
-5.859819
 30
0.000000
 11
18.154444
 21
-5.863823
 31
0.000000
  0
LINE
  8
1
 10
18.154444
 20
-5.863823
 30
0.000000
 11
18.183516
 21
-5.867778
 31
0.000000
  0
LINE
  8
1
 10
18.183516
 20
-5.867778
 30
0.000000
 11
18.214043
 21
-5.871661
 31
0.000000
  0
LINE
  8
1
 10
18.214043
 20
-5.871661
 30
0.000000
 11
18.246021
 21
-5.875444
 31
0.000000
  0
LINE
  8
1
 10
18.246021
 20
-5.875444
 30
0.000000
 11
18.279455
 21
-5.879105
 31
0.000000
  0
LINE
  8
1
 10
18.279455
 20
-5.879105
 30
0.000000
 11
18.314342
 21
-5.882617
 31
0.000000
  0
LINE
  8
1
 10
18.314342
 20
-5.882617
 30
0.000000
 11
18.350687
 21
-5.885955
 31
0.000000
  0
LINE
  8
1
 10
18.350687
 20
-5.885955
 30
0.000000
 11
18.388485
 21
-5.889095
 31
0.000000
  0
LINE
  8
1
 10
18.388485
 20
-5.889095
 30
0.000000
 11
18.427734
 21
-5.892011
 31
0.000000
  0
LINE
  8
1
 10
18.427734
 20
-5.892011
 30
0.000000
 11
18.468439
 21
-5.894678
 31
0.000000
  0
LINE
  8
1
 10
18.468439
 20
-5.894678
 30
0.000000
 11
18.510592
 21
-5.897070
 31
0.000000
  0
LINE
  8
1
 10
18.510592
 20
-5.897070
 30
0.000000
 11
18.554193
 21
-5.899164
 31
0.000000
  0
LINE
  8
1
 10
18.554193
 20
-5.899164
 30
0.000000
 11
18.599243
 21
-5.900932
 31
0.000000
  0
LINE
  8
1
 10
18.599243
 20
-5.900932
 30
0.000000
 11
18.645737
 21
-5.902352
 31
0.000000
  0
LINE
  8
1
 10
18.645737
 20
-5.902352
 30
0.000000
 11
18.693670
 21
-5.903397
 31
0.000000
  0
LINE
  8
1
 10
18.693670
 20
-5.903397
 30
0.000000
 11
18.743044
 21
-5.904042
 31
0.000000
  0
LINE
  8
1
 10
18.743044
 20
-5.904042
 30
0.000000
 11
18.793852
 21
-5.904263
 31
0.000000
  0
LINE
  8
1
 10
18.793852
 20
-5.904263
 30
0.000000
 11
18.846090
 21
-5.904034
 31
0.000000
  0
LINE
  8
1
 10
18.846090
 20
-5.904034
 30
0.000000
 11
18.899759
 21
-5.903330
 31
0.000000
  0
LINE
  8
1
 10
18.899759
 20
-5.903330
 30
0.000000
 11
18.954847
 21
-5.902127
 31
0.000000
  0
LINE
  8
1
 10
18.954847
 20
-5.902127
 30
0.000000
 11
19.011354
 21
-5.900400
 31
0.000000
  0
LINE
  8
1
 10
19.011354
 20
-5.900400
 30
0.000000
 11
19.069275
 21
-5.898123
 31
0.000000
  0
LINE
  8
1
 10
19.069275
 20
-5.898123
 30
0.000000
 11
19.128601
 21
-5.895272
 31
0.000000
  0
LINE
  8
1
 10
19.128601
 20
-5.895272
 30
0.000000
 11
19.189333
 21
-5.891823
 31
0.000000
  0
LINE
  8
1
 10
19.189333
 20
-5.891823
 30
0.000000
 11
19.251457
 21
-5.887750
 31
0.000000
  0
LINE
  8
1
 10
19.251457
 20
-5.887750
 30
0.000000
 11
19.314970
 21
-5.883029
 31
0.000000
  0
LINE
  8
1
 10
19.314970
 20
-5.883029
 30
0.000000
 11
19.379868
 21
-5.877635
 31
0.000000
  0
LINE
  8
1
 10
19.379868
 20
-5.877635
 30
0.000000
 11
19.446142
 21
-5.871545
 31
0.000000
  0
LINE
  8
1
 10
19.446142
 20
-5.871545
 30
0.000000
 11
19.513783
 21
-5.864733
 31
0.000000
  0
LINE
  8
1
 10
19.513783
 20
-5.864733
 30
0.000000
 11
19.582785
 21
-5.857175
 31
0.000000
  0
LINE
  8
1
 10
19.582785
 20
-5.857175
 30
0.000000
 11
19.653139
 21
-5.848846
 31
0.000000
  0
LINE
  8
1
 10
19.653139
 20
-5.848846
 30
0.000000
 11
19.724838
 21
-5.839724
 31
0.000000
  0
LINE
  8
1
 10
19.724838
 20
-5.839724
 30
0.000000
 11
19.797873
 21
-5.829783
 31
0.000000
  0
LINE
  8
1
 10
19.797873
 20
-5.829783
 30
0.000000
 11
19.872234
 21
-5.819001
 31
0.000000
  0
LINE
  8
1
 10
19.872234
 20
-5.819001
 30
0.000000
 11
19.947914
 21
-5.807351
 31
0.000000
  0
LINE
  8
1
 10
19.947914
 20
-5.807351
 30
0.000000
 11
20.024902
 21
-5.794812
 31
0.000000
  0
LINE
  8
1
 10
20.024902
 20
-5.794812
 30
0.000000
 11
20.103188
 21
-5.781359
 31
0.000000
  0
LINE
  8
1
 10
20.103188
 20
-5.781359
 30
0.000000
 11
20.182762
 21
-5.766969
 31
0.000000
  0
LINE
  8
1
 10
20.182762
 20
-5.766969
 30
0.000000
 11
20.263611
 21
-5.751617
 31
0.000000
  0
LINE
  8
1
 10
20.263611
 20
-5.751617
 30
0.000000
 11
20.345730
 21
-5.735282
 31
0.000000
  0
LINE
  8
1
 10
20.345730
 20
-5.735282
 30
0.000000
 11
20.429104
 21
-5.717939
 31
0.000000
  0
LINE
  8
1
 10
20.429104
 20
-5.717939
 30
0.000000
 11
20.513721
 21
-5.699566
 31
0.000000
  0
LINE
  8
1
 10
20.513721
 20
-5.699566
 30
0.000000
 11
20.599571
 21
-5.680139
 31
0.000000
  0
LINE
  8
1
 10
20.599571
 20
-5.680139
 30
0.000000
 11
20.686642
 21
-5.659636
 31
0.000000
  0
LINE
  8
1
 10
20.686642
 20
-5.659636
 30
0.000000
 11
20.774920
 21
-5.638033
 31
0.000000
  0
LINE
  8
1
 10
20.774920
 20
-5.638033
 30
0.000000
 11
20.864393
 21
-5.615308
 31
0.000000
  0
LINE
  8
1
 10
20.864393
 20
-5.615308
 30
0.000000
 11
20.955050
 21
-5.591440
 31
0.000000
  0
LINE
  8
1
 10
20.955050
 20
-5.591440
 30
0.000000
 11
21.046873
 21
-5.566404
 31
0.000000
  0
LINE
  8
1
 10
21.046873
 20
-5.566404
 30
0.000000
 11
21.139854
 21
-5.540180
 31
0.000000
  0
LINE
  8
1
 10
21.139854
 20
-5.540180
 30
0.000000
 11
21.233976
 21
-5.512744
 31
0.000000
  0
LINE
  8
1
 10
21.233976
 20
-5.512744
 30
0.000000
 11
21.303522
 21
-5.491814
 31
0.000000
  0
LINE
  8
1
 10
21.303522
 20
-5.491814
 30
0.000000
 11
21.607706
 21
-4.136065
 31
0.000000
  0
LINE
  8
1
 10
21.607706
 20
-4.136065
 30
0.000000
 11
21.553770
 21
-4.087429
 31
0.000000
  0
LINE
  8
1
 10
21.553770
 20
-4.087429
 30
0.000000
 11
21.480392
 21
-4.022411
 31
0.000000
  0
LINE
  8
1
 10
21.480392
 20
-4.022411
 30
0.000000
 11
21.407528
 21
-3.958977
 31
0.000000
  0
LINE
  8
1
 10
21.407528
 20
-3.958977
 30
0.000000
 11
21.335201
 21
-3.897111
 31
0.000000
  0
LINE
  8
1
 10
21.335201
 20
-3.897111
 30
0.000000
 11
21.263432
 21
-3.836800
 31
0.000000
  0
LINE
  8
1
 10
21.263432
 20
-3.836800
 30
0.000000
 11
21.192244
 21
-3.778028
 31
0.000000
  0
LINE
  8
1
 10
21.192244
 20
-3.778028
 30
0.000000
 11
21.121656
 21
-3.720781
 31
0.000000
  0
LINE
  8
1
 10
21.121656
 20
-3.720781
 30
0.000000
 11
21.051691
 21
-3.665044
 31
0.000000
  0
LINE
  8
1
 10
21.051691
 20
-3.665044
 30
0.000000
 11
20.982372
 21
-3.610802
 31
0.000000
  0
LINE
  8
1
 10
20.982372
 20
-3.610802
 30
0.000000
 11
20.913715
 21
-3.558039
 31
0.000000
  0
LINE
  8
1
 10
20.913715
 20
-3.558039
 30
0.000000
 11
20.845741
 21
-3.506739
 31
0.000000
  0
LINE
  8
1
 10
20.845741
 20
-3.506739
 30
0.000000
 11
20.778473
 21
-3.456887
 31
0.000000
  0
LINE
  8
1
 10
20.778473
 20
-3.456887
 30
0.000000
 11
20.711931
 21
-3.408465
 31
0.000000
  0
LINE
  8
1
 10
20.711931
 20
-3.408465
 30
0.000000
 11
20.646133
 21
-3.361458
 31
0.000000
  0
LINE
  8
1
 10
20.646133
 20
-3.361458
 30
0.000000
 11
20.581100
 21
-3.315849
 31
0.000000
  0
LINE
  8
1
 10
20.581100
 20
-3.315849
 30
0.000000
 11
20.516848
 21
-3.271620
 31
0.000000
  0
LINE
  8
1
 10
20.516848
 20
-3.271620
 30
0.000000
 11
20.453402
 21
-3.228755
 31
0.000000
  0
LINE
  8
1
 10
20.453402
 20
-3.228755
 30
0.000000
 11
20.390774
 21
-3.187237
 31
0.000000
  0
LINE
  8
1
 10
20.390774
 20
-3.187237
 30
0.000000
 11
20.328985
 21
-3.147046
 31
0.000000
  0
LINE
  8
1
 10
20.328985
 20
-3.147046
 30
0.000000
 11
20.268057
 21
-3.108166
 31
0.000000
  0
LINE
  8
1
 10
20.268057
 20
-3.108166
 30
0.000000
 11
20.208006
 21
-3.070579
 31
0.000000
  0
LINE
  8
1
 10
20.208006
 20
-3.070579
 30
0.000000
 11
20.148846
 21
-3.034266
 31
0.000000
  0
LINE
  8
1
 10
20.148846
 20
-3.034266
 30
0.000000
 11
20.090599
 21
-2.999209
 31
0.000000
  0
LINE
  8
1
 10
20.090599
 20
-2.999209
 30
0.000000
 11
20.033281
 21
-2.965388
 31
0.000000
  0
LINE
  8
1
 10
20.033281
 20
-2.965388
 30
0.000000
 11
19.976908
 21
-2.932786
 31
0.000000
  0
LINE
  8
1
 10
19.976908
 20
-2.932786
 30
0.000000
 11
19.921499
 21
-2.901382
 31
0.000000
  0
LINE
  8
1
 10
19.921499
 20
-2.901382
 30
0.000000
 11
19.867069
 21
-2.871158
 31
0.000000
  0
LINE
  8
1
 10
19.867069
 20
-2.871158
 30
0.000000
 11
19.813635
 21
-2.842094
 31
0.000000
  0
LINE
  8
1
 10
19.813635
 20
-2.842094
 30
0.000000
 11
19.761213
 21
-2.814170
 31
0.000000
  0
LINE
  8
1
 10
19.761213
 20
-2.814170
 30
0.000000
 11
19.709816
 21
-2.787367
 31
0.000000
  0
LINE
  8
1
 10
19.709816
 20
-2.787367
 30
0.000000
 11
19.659464
 21
-2.761663
 31
0.000000
  0
LINE
  8
1
 10
19.659464
 20
-2.761663
 30
0.000000
 11
19.610170
 21
-2.737040
 31
0.000000
  0
LINE
  8
1
 10
19.610170
 20
-2.737040
 30
0.000000
 11
19.561947
 21
-2.713476
 31
0.000000
  0
LINE
  8
1
 10
19.561947
 20
-2.713476
 30
0.000000
 11
19.514814
 21
-2.690951
 31
0.000000
  0
LINE
  8
1
 10
19.514814
 20
-2.690951
 30
0.000000
 11
19.468782
 21
-2.669444
 31
0.000000
  0
LINE
  8
1
 10
19.468782
 20
-2.669444
 30
0.000000
 11
19.423866
 21
-2.648934
 31
0.000000
  0
LINE
  8
1
 10
19.423866
 20
-2.648934
 30
0.000000
 11
19.380079
 21
-2.629399
 31
0.000000
  0
LINE
  8
1
 10
19.380079
 20
-2.629399
 30
0.000000
 11
19.337437
 21
-2.610819
 31
0.000000
  0
LINE
  8
1
 10
19.337437
 20
-2.610819
 30
0.000000
 11
19.295950
 21
-2.593173
 31
0.000000
  0
LINE
  8
1
 10
19.295950
 20
-2.593173
 30
0.000000
 11
19.255632
 21
-2.576437
 31
0.000000
  0
LINE
  8
1
 10
19.255632
 20
-2.576437
 30
0.000000
 11
19.216497
 21
-2.560591
 31
0.000000
  0
LINE
  8
1
 10
19.216497
 20
-2.560591
 30
0.000000
 11
19.178556
 21
-2.545613
 31
0.000000
  0
LINE
  8
1
 10
19.178556
 20
-2.545613
 30
0.000000
 11
19.141825
 21
-2.531481
 31
0.000000
  0
LINE
  8
1
 10
19.141825
 20
-2.531481
 30
0.000000
 11
19.106308
 21
-2.518171
 31
0.000000
  0
LINE
  8
1
 10
19.106308
 20
-2.518171
 30
0.000000
 11
19.072021
 21
-2.505662
 31
0.000000
  0
LINE
  8
1
 10
19.072021
 20
-2.505662
 30
0.000000
 11
19.038977
 21
-2.493932
 31
0.000000
  0
LINE
  8
1
 10
19.038977
 20
-2.493932
 30
0.000000
 11
19.007185
 21
-2.482958
 31
0.000000
  0
LINE
  8
1
 10
19.007185
 20
-2.482958
 30
0.000000
 11
18.976654
 21
-2.472717
 31
0.000000
  0
LINE
  8
1
 10
18.976654
 20
-2.472717
 30
0.000000
 11
18.947395
 21
-2.463186
 31
0.000000
  0
LINE
  8
1
 10
18.947395
 20
-2.463186
 30
0.000000
 11
18.919420
 21
-2.454342
 31
0.000000
  0
LINE
  8
1
 10
18.919420
 20
-2.454342
 30
0.000000
 11
18.892736
 21
-2.446161
 31
0.000000
  0
LINE
  8
1
 10
18.892736
 20
-2.446161
 30
0.000000
 11
18.867355
 21
-2.438622
 31
0.000000
  0
LINE
  8
1
 10
18.867355
 20
-2.438622
 30
0.000000
 11
18.843285
 21
-2.431700
 31
0.000000
  0
LINE
  8
1
 10
18.843285
 20
-2.431700
 30
0.000000
 11
18.820532
 21
-2.425371
 31
0.000000
  0
LINE
  8
1
 10
18.820532
 20
-2.425371
 30
0.000000
 11
18.799109
 21
-2.419613
 31
0.000000
  0
LINE
  8
1
 10
18.799109
 20
-2.419613
 30
0.000000
 11
18.779020
 21
-2.414401
 31
0.000000
  0
LINE
  8
1
 10
18.779020
 20
-2.414401
 30
0.000000
 11
18.760277
 21
-2.409712
 31
0.000000
  0
LINE
  8
1
 10
18.760277
 20
-2.409712
 30
0.000000
 11
18.742884
 21
-2.405522
 31
0.000000
  0
LINE
  8
1
 10
18.742884
 20
-2.405522
 30
0.000000
 11
18.726849
 21
-2.401807
 31
0.000000
  0
LINE
  8
1
 10
18.726849
 20
-2.401807
 30
0.000000
 11
18.712181
 21
-2.398542
 31
0.000000
  0
LINE
  8
1
 10
18.712181
 20
-2.398542
 30
0.000000
 11
18.698883
 21
-2.395705
 31
0.000000
  0
LINE
  8
1
 10
18.698883
 20
-2.395705
 30
0.000000
 11
18.686964
 21
-2.393270
 31
0.000000
  0
LINE
  8
1
 10
18.686964
 20
-2.393270
 30
0.000000
 11
18.676428
 21
-2.391213
 31
0.000000
  0
LINE
  8
1
 10
18.676428
 20
-2.391213
 30
0.000000
 11
18.667284
 21
-2.389510
 31
0.000000
  0
LINE
  8
1
 10
18.667284
 20
-2.389510
 30
0.000000
 11
18.659531
 21
-2.388136
 31
0.000000
  0
LINE
  8
1
 10
18.659531
 20
-2.388136
 30
0.000000
 11
18.653181
 21
-2.387067
 31
0.000000
  0
LINE
  8
1
 10
18.653181
 20
-2.387067
 30
0.000000
 11
18.648233
 21
-2.386279
 31
0.000000
  0
LINE
  8
1
 10
18.648233
 20
-2.386279
 30
0.000000
 11
18.644697
 21
-2.385747
 31
0.000000
  0
LINE
  8
1
 10
18.644697
 20
-2.385747
 30
0.000000
 11
18.641861
 21
-2.385350
 31
0.000000
  0
LINE
  8
1
 10
18.641861
 20
-2.385350
 30
0.000000
 11
17.358473
 21
-2.221132
 31
0.000000
  0
LINE
  8
1
 10
17.358473
 20
-2.221132
 30
0.000000
 11
17.500000
 21
0.000000
 31
0.000000
  0
ENDSEC
  0
EOF
