999
dxflib 2.0.4.8
  0
SECTION
  2
HEADER
  9
$ACADVER
  1
AC1015
  9
$HANDSEED
  5
FFFF
  9
$USERR4
 40
0.0
  9
$DIMTDEC
 70
2
  9
$DIMTAD
 70
1
  9
$CMLSTYLE
  2
Standard
  9
$VISRETAIN
 70
1
  9
$TILEMODE
 70
1
  9
$SHADEDIF
 70
70
  9
$USERR5
 40
0.0
  9
$UCSYDIR
 10
0.0
 20
1.0
 30
0.0
  9
$CHAMFERA
 40
10.0
  9
$MENU
  1
.
  9
$DIMALTZ
 70
0
  9
$CLAYER
  8
0
  9
$DIMASZ
 40
2.5
  9
$GRIDUNIT
 10
0.0
 20
0.0
  9
$DIMADEC
 70
0
  9
$OLESTARTUP
290
0
  9
$UCSXDIR
 10
1.0
 20
0.0
 30
0.0
  9
$CHAMFERB
 40
10.0
  9
$DIMUPT
 70
0
  9
$TRACEWID
 40
1.0
  9
$REGENMODE
 70
1
  9
$ORTHOMODE
 70
0
  9
$EXTMIN
 10
0.0
 20
0.0
 30
0.0
  9
$DIMGAP
 40
0.625
  9
$ENDCAPS
280
0
  9
$MEASUREMENT
 70
1
  9
$CMLJUST
 70
0
  9
$PUCSYDIR
 10
0.0
 20
1.0
 30
0.0
  9
$ANGBASE
 50
0.0
  9
$USRTIMER
 70
1
  9
$CHAMFERC
 40
20.0
  9
$SKETCHINC
 40
1.0
  9
$DIMTFAC
 40
1.0
  9
$DIMSAH
 70
0
  9
$DIMALT
 70
0
  9
$DIMSHO
 70
1
  9
$VERSIONGUID
  2
{FAEB1C32-E019-11D5-929B-00C0DF256EC4}
  9
$LWDISPLAY
290
0
  9
$PUCSXDIR
 10
1.0
 20
0.0
 30
0.0
  9
$SURFTYPE
 70
6
  9
$SPLFRAME
 70
0
  9
$CHAMFERD
 40
0.0
  9
$DIMALTRND
 40
0.0
  9
$DIMALTTD
 70
3
  9
$DIMTSZ
 40
0.0
  9
$LIMMIN
 10
0.0
 20
0.0
  9
$SPLINESEGS
 70
8
  9
$AUPREC
 70
0
  9
$LUNITS
 70
2
  9
$CELWEIGHT
370
-1
  9
$SURFTAB1
 70
6
  9
$DWGCODEPAGE
  3
ANSI_1252
  9
$PSTYLEMODE
290
1
  9
$UNITMODE
 70
0
  9
$USERI1
 70
0
  9
$UCSORTHOVIEW
 70
0
  9
$SURFTAB2
 70
6
  9
$TDUUPDATE
 40
2455106.6155949770472944
  9
$TDUCREATE
 40
2455106.6155949649401009
  9
$SKPOLY
 70
0
  9
$ELEVATION
 40
0.0
  9
$DIMDSEP
 70
44
  9
$DIMCEN
 40
2.5
  9
$DIMRND
 40
0.0
  9
$INSBASE
 10
0.0
 20
0.0
 30
0.0
  9
$DIMEXO
 40
0.625
  9
$INSUNITS
 70
4
  9
$USERI2
 70
0
  9
$UCSORGRIGHT
 10
0.0
 20
0.0
 30
0.0
  9
$UCSORG
 10
0.0
 20
0.0
 30
0.0
  9
$PELEVATION
 40
0.0
  9
$TEXTSIZE
 40
2.5
  9
$FILLMODE
 70
1
  9
$EXTMAX
 10
210.0
 20
297.0
 30
0.0
  9
$JOINSTYLE
280
0
  9
$USERI3
 70
0
  9
$PUCSORGBOTTOM
 10
0.0
 20
0.0
 30
0.0
  9
$SURFU
 70
6
  9
$ANGDIR
 70
0
  9
$TDUSRTIMER
 40
0.0000000116
  9
$DIMLWD
 70
-2
  9
$DIMTZIN
 70
8
  9
$DIMTOLJ
 70
0
  9
$DIMZIN
 70
8
  9
$DIMDLE
 40
0.0
  9
$DIMSCALE
 40
1.0
  9
$DIMLUNIT
 70
2
  9
$WORLDVIEW
 70
1
  9
$USERI4
 70
0
  9
$SURFV
 70
6
  9
$DIMLWE
 70
-2
  9
$DIMATFIT
 70
3
  9
$DIMALTTZ
 70
0
  9
$DIMJUST
 70
0
  9
$QTEXTMODE
 70
0
  9
$LIMMAX
 10
210.0
 20
297.0
  9
$ACADMAINTVER
 70
6
  9
$DIMTXT
 40
2.5
  9
$GRIDMODE
 70
1
  9
$EXTNAMES
290
1
  9
$PROXYGRAPHICS
 70
1
  9
$USERI5
 70
0
  9
$UCSORGTOP
 10
0.0
 20
0.0
 30
0.0
  9
$PDMODE
 70
0
  9
$LIMCHECK
 70
0
  9
$THICKNESS
 40
0.0
  9
$DIMAZIN
 70
0
  9
$DIMSE1
 70
0
  9
$DIMLIM
 70
0
  9
$ATTMODE
 70
1
  9
$LUPREC
 70
4
  9
$XEDIT
290
1
  9
$PEXTMAX
 10
210.0
 20
297.0
 30
0.0
  9
$PEXTMIN
 10
0.0
 20
0.0
 30
0.0
  9
$PUCSORG
 10
0.0
 20
0.0
 30
0.0
  9
$SPLINETYPE
 70
6
  9
$TDINDWG
 40
0.0000000116
  9
$DIMSOXD
 70
0
  9
$DIMLFAC
 40
1.0
  9
$DIMSE2
 70
0
  9
$DIMTOH
 70
0
  9
$CELTYPE
  6
ByLayer
  9
$PSVPSCALE
 40
0.0
  9
$FINGERPRINTGUID
  2
{8C7C5B80-8E26-40F4-BA48-B0051130F571}
  9
$PLIMCHECK
 70
0
  9
$PUCSORGRIGHT
 10
0.0
 20
0.0
 30
0.0
  9
$PLINEWID
 40
0.0
  9
$DIMFRAC
 70
0
  9
$DIMSTYLE
  2
ISO-25
  9
$DIMTVP
 40
0.0
  9
$DIMASO
 70
1
  9
$DIMTM
 40
0.0
  9
$DIMDLI
 40
3.75
  9
$DISPSILH
 70
0
  9
$CECOLOR
 62
256
  9
$PLIMMAX
 10
210.0
 20
297.0
  9
$PLIMMIN
 10
0.0
 20
0.0
  9
$TREEDEPTH
 70
3020
  9
$MAXACTVP
 70
64
  9
$UCSORGBACK
 10
0.0
 20
0.0
 30
0.0
  9
$UCSORGLEFT
 10
0.0
 20
0.0
 30
0.0
  9
$TDUPDATE
 40
2455106.6572616440244019
  9
$FILLETRAD
 40
10.0
  9
$DIMALTU
 70
2
  9
$DIMDEC
 70
2
  9
$DIMCLRT
 70
0
  9
$DIMALTD
 70
3
  9
$DIMTIH
 70
0
  9
$LTSCALE
 40
1.0
  9
$DIMEXE
 40
1.25
  9
$CEPSNTYPE
380
0
  9
$CMLSCALE
 40
20.0
  9
$PINSBASE
 10
0.0
 20
0.0
 30
0.0
  9
$USERR1
 40
0.0
  9
$PUCSORTHOVIEW
 70
0
  9
$PDSIZE
 40
0.0
  9
$DIMTXSTY
  7
Standard
  9
$DIMCLRD
 70
0
  9
$CELTSCALE
 40
1.0
  9
$DIMAUNIT
 70
0
  9
$PSLTSCALE
 70
1
  9
$PLINEGEN
 70
0
  9
$SHADEDGE
 70
3
  9
$USERR2
 40
0.0
  9
$PUCSORGTOP
 10
0.0
 20
0.0
 30
0.0
  9
$UCSORGFRONT
 10
0.0
 20
0.0
 30
0.0
  9
$TDCREATE
 40
2455106.6572616319172084
  9
$DIMTMOVE
 70
0
  9
$DIMSD1
 70
0
  9
$DIMCLRE
 70
0
  9
$DIMTOFL
 70
1
  9
$DIMALTF
 40
0.0393700787
  9
$DIMTOL
 70
0
  9
$DIMTP
 40
0.0
  9
$TEXTSTYLE
  7
Standard
  9
$AUNITS
 70
0
  9
$USERR3
 40
0.0
  9
$PUCSORGBACK
 10
0.0
 20
0.0
 30
0.0
  9
$PUCSORGFRONT
 10
0.0
 20
0.0
 30
0.0
  9
$PUCSORGLEFT
 10
0.0
 20
0.0
 30
0.0
  9
$UCSORGBOTTOM
 10
0.0
 20
0.0
 30
0.0
  9
$DIMSD2
 70
0
  9
$DIMTIX
 70
0
  9
$MIRRTEXT
 70
1
  0
ENDSEC
  0
SECTION
  2
TABLES
  0
TABLE
  2
VPORT
  5
8
100
AcDbSymbolTable
 70
1
  0
VPORT
  5
30
100
AcDbSymbolTableRecord
100
AcDbViewportTableRecord
  2
*Active
 70
0
 10
0.0
 20
0.0
 11
1.0
 21
1.0
 12
286.3055555555554861
 22
148.5
 13
0.0
 23
0.0
 14
10.0
 24
10.0
 15
10.0
 25
10.0
 16
0.0
 26
0.0
 36
1.0
 17
0.0
 27
0.0
 37
0.0
 40
297.0
 41
1.92798353909465
 42
50.0
 43
0.0
 44
0.0
 50
0.0
 51
0.0
 71
0
 72
100
 73
1
 74
3
 75
1
 76
1
 77
0
 78
0
281
0
 65
1
110
0.0
120
0.0
130
0.0
111
1.0
121
0.0
131
0.0
112
0.0
122
1.0
132
0.0
 79
0
146
0.0
  0
ENDTAB
  0
TABLE
  2
LTYPE
  5
5
100
AcDbSymbolTable
 70
21
  0
LTYPE
  5
14
100
AcDbSymbolTableRecord
100
AcDbLinetypeTableRecord
  2
ByBlock
 70
0
  3

 72
65
 73
0
 40
0.0
  0
LTYPE
  5
15
100
AcDbSymbolTableRecord
100
AcDbLinetypeTableRecord
  2
ByLayer
 70
0
  3

 72
65
 73
0
 40
0.0
  0
LTYPE
  5
16
100
AcDbSymbolTableRecord
100
AcDbLinetypeTableRecord
  2
CONTINUOUS
 70
0
  3
Solid line
 72
65
 73
0
 40
0.0
  0
LTYPE
  5
31
100
AcDbSymbolTableRecord
100
AcDbLinetypeTableRecord
  2
DOT
 70
0
  3
Dot . . . . . . . . . . . . . . . . . . . . . .
 72
65
 73
2
 40
6.3499999999999996
 49
0.0
 74
0
 49
-6.3499999999999996
 74
0
  0
LTYPE
  5
32
100
AcDbSymbolTableRecord
100
AcDbLinetypeTableRecord
  2
DOT2
 70
0
  3
Dot (.5x) .....................................
 72
65
 73
2
 40
3.1749999999999998
 49
0.0
 74
0
 49
-3.1749999999999998
 74
0
  0
LTYPE
  5
33
100
AcDbSymbolTableRecord
100
AcDbLinetypeTableRecord
  2
DOTX2
 70
0
  3
Dot (2x) .  .  .  .  .  .  .  .  .  .  .  .  .
 72
65
 73
2
 40
12.6999999999999993
 49
0.0
 74
0
 49
-12.6999999999999993
 74
0
  0
LTYPE
  5
34
100
AcDbSymbolTableRecord
100
AcDbLinetypeTableRecord
  2
DASHED
 70
0
  3
Dashed __ __ __ __ __ __ __ __ __ __ __ __ __ _
 72
65
 73
2
 40
19.0500000000000007
 49
12.6999999999999993
 74
0
 49
-6.3499999999999996
 74
0
  0
LTYPE
  5
35
100
AcDbSymbolTableRecord
100
AcDbLinetypeTableRecord
  2
DASHED2
 70
0
  3
Dashed (.5x) _ _ _ _ _ _ _ _ _ _ _ _ _ _ _ _ _
 72
65
 73
2
 40
9.5250000000000004
 49
6.3499999999999996
 74
0
 49
-3.1749999999999998
 74
0
  0
LTYPE
  5
36
100
AcDbSymbolTableRecord
100
AcDbLinetypeTableRecord
  2
DASHEDX2
 70
0
  3
Dashed (2x) ____  ____  ____  ____  ____  ___
 72
65
 73
2
 40
38.1000000000000014
 49
25.3999999999999986
 74
0
 49
-12.6999999999999993
 74
0
  0
LTYPE
  5
37
100
AcDbSymbolTableRecord
100
AcDbLinetypeTableRecord
  2
DASHDOT
 70
0
  3
Dash dot __ . __ . __ . __ . __ . __ . __ . __
 72
65
 73
4
 40
25.3999999999999986
 49
12.6999999999999993
 74
0
 49
-6.3499999999999996
 74
0
 49
0.0
 74
0
 49
-6.3499999999999996
 74
0
  0
LTYPE
  5
38
100
AcDbSymbolTableRecord
100
AcDbLinetypeTableRecord
  2
DASHDOT2
 70
0
  3
Dash dot (.5x) _._._._._._._._._._._._._._._.
 72
65
 73
4
 40
12.6999999999999993
 49
6.3499999999999996
 74
0
 49
-3.1749999999999998
 74
0
 49
0.0
 74
0
 49
-3.1749999999999998
 74
0
  0
LTYPE
  5
39
100
AcDbSymbolTableRecord
100
AcDbLinetypeTableRecord
  2
DASHDOTX2
 70
0
  3
Dash dot (2x) ____  .  ____  .  ____  .  ___
 72
65
 73
4
 40
50.7999999999999972
 49
25.3999999999999986
 74
0
 49
-12.6999999999999993
 74
0
 49
0.0
 74
0
 49
-12.6999999999999993
 74
0
  0
LTYPE
  5
3A
100
AcDbSymbolTableRecord
100
AcDbLinetypeTableRecord
  2
DIVIDE
 70
0
  3
Divide ____ . . ____ . . ____ . . ____ . . ____
 72
65
 73
6
 40
31.75
 49
12.6999999999999993
 74
0
 49
-6.3499999999999996
 74
0
 49
0.0
 74
0
 49
-6.3499999999999996
 74
0
 49
0.0
 74
0
 49
-6.3499999999999996
 74
0
  0
LTYPE
  5
3B
100
AcDbSymbolTableRecord
100
AcDbLinetypeTableRecord
  2
DIVIDE2
 70
0
  3
Divide (.5x) __..__..__..__..__..__..__..__.._
 72
65
 73
6
 40
15.875
 49
6.3499999999999996
 74
0
 49
-3.1749999999999998
 74
0
 49
0.0
 74
0
 49
-3.1749999999999998
 74
0
 49
0.0
 74
0
 49
-3.1749999999999998
 74
0
  0
LTYPE
  5
3C
100
AcDbSymbolTableRecord
100
AcDbLinetypeTableRecord
  2
DIVIDEX2
 70
0
  3
Divide (2x) ________  .  .  ________  .  .  _
 72
65
 73
6
 40
63.5
 49
25.3999999999999986
 74
0
 49
-12.6999999999999993
 74
0
 49
0.0
 74
0
 49
-12.6999999999999993
 74
0
 49
0.0
 74
0
 49
-12.6999999999999993
 74
0
  0
LTYPE
  5
3D
100
AcDbSymbolTableRecord
100
AcDbLinetypeTableRecord
  2
CENTER
 70
0
  3
Center ____ _ ____ _ ____ _ ____ _ ____ _ ____
 72
65
 73
4
 40
50.7999999999999972
 49
31.75
 74
0
 49
-6.3499999999999996
 74
0
 49
6.3499999999999996
 74
0
 49
-6.3499999999999996
 74
0
  0
LTYPE
  5
3E
100
AcDbSymbolTableRecord
100
AcDbLinetypeTableRecord
  2
CENTER2
 70
0
  3
Center (.5x) ___ _ ___ _ ___ _ ___ _ ___ _ ___
 72
65
 73
4
 40
28.5749999999999993
 49
19.0500000000000007
 74
0
 49
-3.1749999999999998
 74
0
 49
3.1749999999999998
 74
0
 49
-3.1749999999999998
 74
0
  0
LTYPE
  5
3F
100
AcDbSymbolTableRecord
100
AcDbLinetypeTableRecord
  2
CENTERX2
 70
0
  3
Center (2x) ________  __  ________  __  _____
 72
65
 73
4
 40
101.5999999999999943
 49
63.5
 74
0
 49
-12.6999999999999993
 74
0
 49
12.6999999999999993
 74
0
 49
-12.6999999999999993
 74
0
  0
LTYPE
  5
40
100
AcDbSymbolTableRecord
100
AcDbLinetypeTableRecord
  2
BORDER
 70
0
  3
Border __ __ . __ __ . __ __ . __ __ . __ __ .
 72
65
 73
6
 40
44.4500000000000028
 49
12.6999999999999993
 74
0
 49
-6.3499999999999996
 74
0
 49
12.6999999999999993
 74
0
 49
-6.3499999999999996
 74
0
 49
0.0
 74
0
 49
-6.3499999999999996
 74
0
  0
LTYPE
  5
41
100
AcDbSymbolTableRecord
100
AcDbLinetypeTableRecord
  2
BORDER2
 70
0
  3
Border (.5x) __.__.__.__.__.__.__.__.__.__.__.
 72
65
 73
6
 40
22.2250000000000014
 49
6.3499999999999996
 74
0
 49
-3.1749999999999998
 74
0
 49
6.3499999999999996
 74
0
 49
-3.1749999999999998
 74
0
 49
0.0
 74
0
 49
-3.1749999999999998
 74
0
  0
LTYPE
  5
42
100
AcDbSymbolTableRecord
100
AcDbLinetypeTableRecord
  2
BORDERX2
 70
0
  3
Border (2x) ____  ____  .  ____  ____  .  ___
 72
65
 73
6
 40
88.9000000000000057
 49
25.3999999999999986
 74
0
 49
-12.6999999999999993
 74
0
 49
25.3999999999999986
 74
0
 49
-12.6999999999999993
 74
0
 49
0.0
 74
0
 49
-12.6999999999999993
 74
0
  0
ENDTAB
  0
TABLE
  2
LAYER
  5
2
100
AcDbSymbolTable
 70
6
  0
LAYER
  5
10
100
AcDbSymbolTableRecord
100
AcDbLayerTableRecord
  2
0
 70
0
 62
7
  6
CONTINUOUS
370
-3
390
F
  0
LAYER
  5
43
100
AcDbSymbolTableRecord
100
AcDbLayerTableRecord
  2
Default
 70
0
 62
7
  6
CONTINUOUS
370
-3
390
F
  0
LAYER
  5
44
100
AcDbSymbolTableRecord
100
AcDbLayerTableRecord
  2
X-FLAG-FLAT
 70
0
 62
7
  6
CONTINUOUS
370
-3
390
F
  0
LAYER
  5
45
100
AcDbSymbolTableRecord
100
AcDbLayerTableRecord
  2
Y-FLAG-FLAT
 70
0
 62
7
  6
CONTINUOUS
370
-3
390
F
  0
LAYER
  5
46
100
AcDbSymbolTableRecord
100
AcDbLayerTableRecord
  2
centres
 70
0
 62
7
  6
CONTINUOUS
370
0
390
F
  0
LAYER
  5
47
100
AcDbSymbolTableRecord
100
AcDbLayerTableRecord
  2
Z-FLAG
 70
0
 62
7
  6
CONTINUOUS
370
0
390
F
  0
ENDTAB
  0
TABLE
  2
STYLE
  5
3
100
AcDbSymbolTable
 70
1
  0
STYLE
  5
11
100
AcDbSymbolTableRecord
100
AcDbTextStyleTableRecord
  2
Standard
 70
0
 40
0.0
 41
0.75
 50
0.0
 71
0
 42
2.5
  3
txt
  4

  0
ENDTAB
  0
TABLE
  2
VIEW
  5
6
100
AcDbSymbolTable
 70
0
  0
ENDTAB
  0
TABLE
  2
UCS
  5
7
100
AcDbSymbolTable
 70
0
  0
ENDTAB
  0
TABLE
  2
APPID
  5
9
100
AcDbSymbolTable
 70
1
  0
APPID
  5
12
100
AcDbSymbolTableRecord
100
AcDbRegAppTableRecord
  2
ACAD
 70
0
  0
ENDTAB
  0
TABLE
  2
DIMSTYLE
  5
A
100
AcDbSymbolTable
 70
1
100
AcDbDimStyleTable
 71
0
  0
DIMSTYLE
105
27
100
AcDbSymbolTableRecord
100
AcDbDimStyleTableRecord
  2
Standard
 41
2.5
 42
0.625
 43
3.75
 44
1.25
 70
0
 73
0
 74
0
 77
1
 78
8
140
2.5
141
2.5
143
0.03937007874016
147
0.625
171
3
172
1
271
2
272
2
274
3
278
44
283
0
284
8
340
11
  0
ENDTAB
  0
TABLE
  2
BLOCK_RECORD
  5
1
100
AcDbSymbolTable
 70
1
  0
BLOCK_RECORD
  5
1F
100
AcDbSymbolTableRecord
100
AcDbBlockTableRecord
  2
*Model_Space
340
22
  0
BLOCK_RECORD
  5
1B
100
AcDbSymbolTableRecord
100
AcDbBlockTableRecord
  2
*Paper_Space
340
1E
  0
BLOCK_RECORD
  5
23
100
AcDbSymbolTableRecord
100
AcDbBlockTableRecord
  2
*Paper_Space0
340
26
  0
BLOCK_RECORD
  5
48
100
AcDbSymbolTableRecord
100
AcDbBlockTableRecord
  2
SE
340
0
  0
BLOCK_RECORD
  5
49
100
AcDbSymbolTableRecord
100
AcDbBlockTableRecord
  2
SE1
340
0
  0
BLOCK_RECORD
  5
4A
100
AcDbSymbolTableRecord
100
AcDbBlockTableRecord
  2
SE2
340
0
  0
BLOCK_RECORD
  5
4B
100
AcDbSymbolTableRecord
100
AcDbBlockTableRecord
  2
_Oblique
340
0
  0
BLOCK_RECORD
  5
4C
100
AcDbSymbolTableRecord
100
AcDbBlockTableRecord
  2
_Dot
340
0
  0
BLOCK_RECORD
  5
4D
100
AcDbSymbolTableRecord
100
AcDbBlockTableRecord
  2
_SE_FILLED
340
0
  0
BLOCK_RECORD
  5
4E
100
AcDbSymbolTableRecord
100
AcDbBlockTableRecord
  2
DMBLK1
340
0
  0
ENDTAB
  0
ENDSEC
  0
SECTION
  2
BLOCKS
  0
BLOCK
  5
20
100
AcDbEntity
  8
0
100
AcDbBlockBegin
  2
*Model_Space
 70
0
 10
0.0
 20
0.0
 30
0.0
  3
*Model_Space
  1

  0
ENDBLK
  5
21
100
AcDbEntity
  8
0
100
AcDbBlockEnd
  0
BLOCK
  5
1C
100
AcDbEntity
 67
1
  8
0
100
AcDbBlockBegin
  2
*Paper_Space
 70
0
 10
0.0
 20
0.0
 30
0.0
  3
*Paper_Space
  1

  0
ENDBLK
  5
1D
100
AcDbEntity
 67
1
  8
0
100
AcDbBlockEnd
  0
BLOCK
  5
24
100
AcDbEntity
  8
0
100
AcDbBlockBegin
  2
*Paper_Space0
 70
0
 10
0.0
 20
0.0
 30
0.0
  3
*Paper_Space0
  1

  0
ENDBLK
  5
25
100
AcDbEntity
  8
0
100
AcDbBlockEnd
  0
BLOCK
  5
4F
100
AcDbEntity
  8
0
100
AcDbBlockBegin
  2
SE
 70
0
 10
0.0
 20
0.0
 30
0.0
  3
SE
  1

  0
LINE
  5
50
100
AcDbEntity
100
AcDbLine
  8
X-FLAG-FLAT
 62
7
370
-1
  6
CONTINUOUS
 10
85.3627922589000008
 20
191.7530924127999867
 30
0.0
 11
85.3627922589000008
 21
179.7530924127999867
 31
0.0
  0
LINE
  5
51
100
AcDbEntity
100
AcDbLine
  8
X-FLAG-FLAT
 62
7
370
-1
  6
CONTINUOUS
 10
103.3627922589000008
 20
191.7530924127999867
 30
0.0
 11
103.3627922589000008
 21
174.7530924127999867
 31
0.0
  0
LINE
  5
52
100
AcDbEntity
100
AcDbLine
  8
X-FLAG-FLAT
 62
7
370
-1
  6
CONTINUOUS
 10
85.3627922589000008
 20
191.7530924127999867
 30
0.0
 11
103.3627922589000008
 21
191.7530924127999867
 31
0.0
  0
LINE
  5
53
100
AcDbEntity
100
AcDbLine
  8
X-FLAG-FLAT
 62
7
370
-1
  6
CONTINUOUS
 10
95.3627922589000008
 20
141.7530924127999867
 30
0.0
 11
103.3627922589000008
 21
141.7530924127999867
 31
0.0
  0
LINE
  5
54
100
AcDbEntity
100
AcDbLine
  8
X-FLAG-FLAT
 62
7
370
-1
  6
CONTINUOUS
 10
95.3627922589000008
 20
179.7530924127999867
 30
0.0
 11
85.3627922589000008
 21
179.7530924127999867
 31
0.0
  0
LINE
  5
55
100
AcDbEntity
100
AcDbLine
  8
X-FLAG-FLAT
 62
7
370
-1
  6
CONTINUOUS
 10
95.3627922589000008
 20
141.7530924127999867
 30
0.0
 11
95.3627922589000008
 21
162.7530924127999867
 31
0.0
  0
CIRCLE
  5
56
100
AcDbEntity
100
AcDbCircle
  8
X-FLAG-FLAT
 62
7
370
-1
  6
CONTINUOUS
 10
91.3627922589000008
 20
185.7530924127999867
 30
0.0
 40
2.2000000000000002
  0
LINE
  5
57
100
AcDbEntity
100
AcDbLine
  8
X-FLAG-FLAT
 62
7
370
-1
  6
CONTINUOUS
 10
95.3627922589000008
 20
174.7530924127999867
 30
0.0
 11
95.3627922589000008
 21
179.7530924127999867
 31
0.0
  0
LINE
  5
58
100
AcDbEntity
100
AcDbLine
  8
X-FLAG-FLAT
 62
7
370
-1
  6
CONTINUOUS
 10
103.3627922589000008
 20
162.7530924127999867
 30
0.0
 11
103.3627922589000008
 21
141.7530924127999867
 31
0.0
  0
LINE
  5
59
100
AcDbEntity
100
AcDbLine
  8
X-FLAG-FLAT
 62
7
370
-1
  6
CONTINUOUS
 10
95.3627922589000008
 20
174.7530924127999867
 30
0.0
 11
103.3627922589000008
 21
174.7530924127999867
 31
0.0
  0
LINE
  5
5A
100
AcDbEntity
100
AcDbLine
  8
X-FLAG-FLAT
 62
7
370
-1
  6
CONTINUOUS
 10
103.3627922589000008
 20
162.7530924127999867
 30
0.0
 11
95.3627922589000008
 21
162.7530924127999867
 31
0.0
  0
LINE
  5
5B
100
AcDbEntity
100
AcDbLine
  8
X-FLAG-FLAT
 62
7
370
-1
  6
CONTINUOUS
 10
95.3627922589000008
 20
162.7530924127999867
 30
0.0
 11
95.3627922589000008
 21
174.7530924127999867
 31
0.0
  0
LINE
  5
5C
100
AcDbEntity
100
AcDbLine
  8
X-FLAG-FLAT
 62
7
370
-1
  6
CONTINUOUS
 10
103.3627922589000008
 20
174.7530924127999867
 30
0.0
 11
103.3627922589000008
 21
162.7530924127999867
 31
0.0
  0
ENDBLK
  5
5D
100
AcDbEntity
  8
0
100
AcDbBlockEnd
  0
BLOCK
  5
5E
100
AcDbEntity
  8
0
100
AcDbBlockBegin
  2
SE1
 70
0
 10
0.0
 20
0.0
 30
0.0
  3
SE1
  1

  0
LINE
  5
5F
100
AcDbEntity
100
AcDbLine
  8
Y-FLAG-FLAT
 62
7
370
-1
  6
CONTINUOUS
 10
106.9832019032999995
 20
141.8650934263999943
 30
0.0
 11
106.9832019032999995
 21
168.8650934263999943
 31
0.0
  0
LINE
  5
60
100
AcDbEntity
100
AcDbLine
  8
Y-FLAG-FLAT
 62
7
370
-1
  6
CONTINUOUS
 10
116.9832019032999995
 20
141.8650934263999943
 30
0.0
 11
116.9832019032999995
 21
168.8650934263999943
 31
0.0
  0
LINE
  5
61
100
AcDbEntity
100
AcDbLine
  8
Y-FLAG-FLAT
 62
7
370
-1
  6
CONTINUOUS
 10
106.9832019032999995
 20
191.8650934263999943
 30
0.0
 11
116.9832019032999995
 21
191.8650934263999943
 31
0.0
  0
LINE
  5
62
100
AcDbEntity
100
AcDbLine
  8
Y-FLAG-FLAT
 62
7
370
-1
  6
CONTINUOUS
 10
106.9832019032999995
 20
141.8650934263999943
 30
0.0
 11
116.9832019032999995
 21
141.8650934263999943
 31
0.0
  0
CIRCLE
  5
63
100
AcDbEntity
100
AcDbCircle
  8
Y-FLAG-FLAT
 62
7
370
-1
  6
CONTINUOUS
 10
111.9832019032999995
 20
185.8650934263999943
 30
0.0
 40
2.2000000000000011
  0
LINE
  5
64
100
AcDbEntity
100
AcDbLine
  8
Y-FLAG-FLAT
 62
7
370
-1
  6
CONTINUOUS
 10
116.9832019032999995
 20
175.8650934263999943
 30
0.0
 11
116.9832019032999995
 21
191.8650934263999943
 31
0.0
  0
LINE
  5
65
100
AcDbEntity
100
AcDbLine
  8
Y-FLAG-FLAT
 62
7
370
-1
  6
CONTINUOUS
 10
106.9832019032999995
 20
175.8650934263999943
 30
0.0
 11
106.9832019032999995
 21
191.8650934263999943
 31
0.0
  0
LINE
  5
66
100
AcDbEntity
100
AcDbLine
  8
Y-FLAG-FLAT
 62
7
370
-1
  6
CONTINUOUS
 10
106.9832019032999995
 20
175.8650934263999943
 30
0.0
 11
106.9832019032999995
 21
168.8650934263999943
 31
0.0
  0
LINE
  5
67
100
AcDbEntity
100
AcDbLine
  8
Y-FLAG-FLAT
 62
7
370
-1
  6
CONTINUOUS
 10
116.9832019032999995
 20
168.8650934263999943
 30
0.0
 11
116.9832019032999995
 21
175.8650934263999943
 31
0.0
  0
LINE
  5
68
100
AcDbEntity
100
AcDbLine
  8
Y-FLAG-FLAT
 62
7
370
-1
  6
CONTINUOUS
 10
106.9832019032999995
 20
168.8650934263999943
 30
0.0
 11
116.9832019032999995
 21
168.8650934263999943
 31
0.0
  0
LINE
  5
69
100
AcDbEntity
100
AcDbLine
  8
Y-FLAG-FLAT
 62
7
370
-1
  6
CONTINUOUS
 10
116.9832019032999995
 20
175.8650934263999943
 30
0.0
 11
106.9832019032999995
 21
175.8650934263999943
 31
0.0
  0
ENDBLK
  5
6A
100
AcDbEntity
  8
0
100
AcDbBlockEnd
  0
BLOCK
  5
6B
100
AcDbEntity
  8
0
100
AcDbBlockBegin
  2
SE2
 70
0
 10
0.0
 20
0.0
 30
0.0
  3
SE2
  1

  0
ENDBLK
  5
6C
100
AcDbEntity
  8
0
100
AcDbBlockEnd
  0
BLOCK
  5
6D
100
AcDbEntity
  8
0
100
AcDbBlockBegin
  2
_Oblique
 70
0
 10
0.0
 20
0.0
 30
0.0
  3
_Oblique
  1

  0
LINE
  5
6E
100
AcDbEntity
100
AcDbLine
  8
0
 62
0
370
-2
  6
ByBlock
 10
-0.5
 20
-0.5
 30
0.0
 11
0.5
 21
0.5
 31
0.0
  0
ENDBLK
  5
6F
100
AcDbEntity
  8
0
100
AcDbBlockEnd
  0
BLOCK
  5
70
100
AcDbEntity
  8
0
100
AcDbBlockBegin
  2
_Dot
 70
0
 10
0.0
 20
0.0
 30
0.0
  3
_Dot
  1

  0
LWPOLYLINE
  5
71
  8
0
 62
0
370
-1
  6
ByBlock
100
AcDbEntity
100
AcDbPolyline
 90
2
 70
1
 10
-0.25
 20
0.0
 42
0.9999999999999999
 10
0.25
 20
0.0
 42
0.9999999999999999
  0
LINE
  5
72
100
AcDbEntity
100
AcDbLine
  8
0
 62
0
370
-2
  6
ByBlock
 10
-0.5
 20
0.0
 30
0.0
 11
-1.0
 21
0.0
 31
0.0
  0
ENDBLK
  5
73
100
AcDbEntity
  8
0
100
AcDbBlockEnd
  0
BLOCK
  5
74
100
AcDbEntity
  8
0
100
AcDbBlockBegin
  2
_SE_FILLED
 70
0
 10
0.0
 20
0.0
 30
0.0
  3
_SE_FILLED
  1

  0
LINE
  5
75
100
AcDbEntity
100
AcDbLine
  8
0
 62
0
370
-1
  6
ByLayer
 10
0.0
 20
0.0
 30
0.0
 11
-1.0
 21
0.0
 31
0.0
  0
ENDBLK
  5
76
100
AcDbEntity
  8
0
100
AcDbBlockEnd
  0
BLOCK
  5
77
100
AcDbEntity
  8
0
100
AcDbBlockBegin
  2
DMBLK1
 70
0
 10
0.0
 20
0.0
 30
0.0
  3
DMBLK1
  1

  0
HATCH
  5
78
  8
Default
 62
7
370
20
  6
CONTINUOUS
100
AcDbEntity
100
AcDbHatch
 10
0.0
 20
0.0
 30
0.0
210
0.0
220
0.0
230
1.0
  2
SOLID
 70
1
 71
0
 91
1
 92
1
 93
3
 72
1
 10
155.4852275623505022
 20
115.5839531532888032
 11
154.3185608596726865
 21
115.5839531532888032
 72
1
 10
154.3185608596726865
 20
115.5839531532888032
 11
154.9018942110116086
 21
112.0839530452553987
 72
1
 10
154.9018942110116086
 20
112.0839530452553987
 11
155.4852275623505022
 21
115.5839531532888032
 97
0
 75
0
 76
1
 98
0
  0
HATCH
  5
79
  8
Default
 62
7
370
20
  6
CONTINUOUS
100
AcDbEntity
100
AcDbHatch
 10
0.0
 20
0.0
 30
0.0
210
0.0
220
0.0
230
1.0
  2
SOLID
 70
1
 71
0
 91
1
 92
1
 93
3
 72
1
 10
155.4852275623505022
 20
188.5839511490827078
 11
154.9018942110116086
 21
192.0839512571160981
 72
1
 10
154.9018942110116086
 20
192.0839512571160981
 11
154.3185608596726865
 21
188.5839511490827078
 72
1
 10
154.3185608596726865
 20
188.5839511490827078
 11
155.4852275623505022
 21
188.5839511490827078
 97
0
 75
0
 76
1
 98
0
  0
LINE
  5
7A
100
AcDbEntity
100
AcDbLine
  8
Default
 62
7
370
20
  6
CONTINUOUS
 10
140.2402906037999912
 20
192.0839512571000114
 30
0.0
 11
156.6518942650000099
 21
192.0839512571000114
 31
0.0
  0
LINE
  5
7B
100
AcDbEntity
100
AcDbLine
  8
Default
 62
7
370
20
  6
CONTINUOUS
 10
140.2402906037999912
 20
112.0839512570999972
 30
0.0
 11
156.6518942650000099
 21
112.0839512570999972
 31
0.0
  0
LINE
  5
7C
100
AcDbEntity
100
AcDbLine
  8
Default
 62
7
370
20
  6
CONTINUOUS
 10
154.9018942110000125
 20
192.0839512571000114
 30
0.0
 11
154.9018942110000125
 21
112.0839530453000066
 31
0.0
  0
LINE
  5
7D
100
AcDbEntity
100
AcDbLine
  8
Default
 62
7
370
0
  6
CONTINUOUS
 10
154.0268942110000125
 20
148.1066794239000046
 30
0.0
 11
154.0268942110000125
 21
156.0612248785000133
 31
0.0
  0
LINE
  5
7E
100
AcDbEntity
100
AcDbLine
  8
Default
 62
7
370
20
  6
CONTINUOUS
 10
147.0268942110000125
 20
156.0612248785000133
 30
0.0
 11
147.0268942110000125
 21
148.1066794239000046
 31
0.0
  0
ARC
  5
7F
100
AcDbEntity
  8
Default
 62
7
370
20
  6
CONTINUOUS
100
AcDbCircle
 10
150.5268942110000125
 20
148.1066794239000046
 30
0.0
 40
3.5000000000000031
100
AcDbArc
 50
180.0
 51
360.0
  0
ARC
  5
80
100
AcDbEntity
  8
Default
 62
7
370
20
  6
CONTINUOUS
100
AcDbCircle
 10
150.5268942110000125
 20
156.0612248785000133
 30
0.0
 40
3.5000000000000031
100
AcDbArc
 50
0.0
 51
180.0
  0
MTEXT
  5
81
100
AcDbEntity
100
AcDbMText
  8
Default
 62
7
370
20
  6
CONTINUOUS
 10
148.7768942110000125
 20
149.8566794239000046
 30
0.0
 40
3.5
 41
100.0
 71
1
 72
2
  1
80
  7
SEACAD_arial_ttf
 50
90.0
 73
0
 44
1.0
  0
ENDBLK
  5
82
100
AcDbEntity
  8
0
100
AcDbBlockEnd
  0
ENDSEC
  0
SECTION
  2
ENTITIES
  0
INSERT
  5
83
100
AcDbEntity
100
AcDbBlockReference
  8
Default
 62
256
370
-1
  6
ByLayer
  2
SE1
 10
0.0
 20
0.0
 30
0.0
  0
LINE
  5
84
100
AcDbEntity
100
AcDbLine
  8
centres
 62
256
370
-1
  6
ByLayer
 10
91.362792258900015
 20
170.7530924127999867
 30
0.0
 11
91.362792258900015
 21
195.7530924127999867
 31
0.0
  0
LINE
  5
85
100
AcDbEntity
100
AcDbLine
  8
centres
 62
256
370
-1
  6
ByLayer
 10
76.362792258900015
 20
185.7530924127999867
 30
0.0
 11
101.362792258900015
 21
185.7530924127999867
 31
0.0
  0
LINE
  5
86
100
AcDbEntity
100
AcDbLine
  8
centres
 62
256
370
-1
  6
ByLayer
 10
111.9832019032999995
 20
170.8650934263999659
 30
0.0
 11
111.9832019032999995
 21
195.8650934263999659
 31
0.0
  0
LINE
  5
87
100
AcDbEntity
100
AcDbLine
  8
centres
 62
256
370
-1
  6
ByLayer
 10
96.9832019032999995
 20
185.8650934263999659
 30
0.0
 11
121.9832019032999995
 21
185.8650934263999659
 31
0.0
  0
LINE
  5
88
100
AcDbEntity
100
AcDbLine
  8
centres
 62
256
370
-1
  6
ByLayer
 10
125.4402907035999988
 20
171.0839512571000114
 30
0.0
 11
125.4402907035999988
 21
196.0839512571000114
 31
0.0
  0
LINE
  5
89
100
AcDbEntity
100
AcDbLine
  8
centres
 62
256
370
-1
  6
ByLayer
 10
110.4402907035999988
 20
186.0839512571000114
 30
0.0
 11
135.4402907035999988
 21
186.0839512571000114
 31
0.0
  0
LINE
  5
8A
100
AcDbEntity
100
AcDbLine
  8
X-FLAG-FLAT
 62
256
370
-1
  6
ByLayer
 10
103.3627922589000008
 20
141.7530924127999583
 30
0.0
 11
95.3627922589000008
 21
141.7530924127999867
 31
0.0
  0
LINE
  5
8B
100
AcDbEntity
100
AcDbLine
  8
X-FLAG-FLAT
 62
256
370
-1
  6
ByLayer
 10
95.3627922589000008
 20
141.7530924127999867
 30
0.0
 11
95.3627922589000008
 21
179.7530924127999867
 31
0.0
  0
LINE
  5
8C
100
AcDbEntity
100
AcDbLine
  8
X-FLAG-FLAT
 62
256
370
-1
  6
ByLayer
 10
95.3627922589000008
 20
174.7530924127999867
 30
0.0
 11
103.3627922589000008
 21
174.7530924127999583
 31
0.0
  0
LINE
  5
8D
100
AcDbEntity
100
AcDbLine
  8
X-FLAG-FLAT
 62
256
370
-1
  6
ByLayer
 10
95.3627922589000008
 20
162.7530924128000152
 30
0.0
 11
103.3627922589000008
 21
162.7530924127999867
 31
0.0
  0
CIRCLE
  5
8E
100
AcDbEntity
100
AcDbCircle
  8
X-FLAG-FLAT
 62
256
370
-1
  6
ByLayer
 10
91.362792258900015
 20
185.7530924127999867
 30
0.0
 40
2.1999999999999966
  0
CIRCLE
  5
8F
100
AcDbEntity
100
AcDbCircle
  8
X-FLAG-FLAT
 62
256
370
-1
  6
ByLayer
 10
75.362792258900015
 20
185.7530924127999867
 30
0.0
 40
2.1999999999999966
  0
LINE
  5
90
100
AcDbEntity
100
AcDbLine
  8
X-FLAG-FLAT
 62
256
370
-1
  6
ByLayer
 10
95.3627922589000008
 20
179.7530924127999867
 30
0.0
 11
70.3627922589000008
 21
179.7530924127999867
 31
0.0
  0
LINE
  5
91
100
AcDbEntity
100
AcDbLine
  8
X-FLAG-FLAT
 62
256
370
-1
  6
ByLayer
 10
70.3627922589000008
 20
191.7530924128000152
 30
0.0
 11
70.3627922589000008
 21
179.7530924127999867
 31
0.0
  0
LINE
  5
92
100
AcDbEntity
100
AcDbLine
  8
centres
 62
256
370
-1
  6
ByLayer
 10
65.362792258900015
 20
185.7530924127999867
 30
0.0
 11
85.362792258900015
 21
185.7530924127999867
 31
0.0
  0
LINE
  5
93
100
AcDbEntity
100
AcDbLine
  8
centres
 62
256
370
-1
  6
ByLayer
 10
75.362792258900015
 20
175.7530924127999867
 30
0.0
 11
75.362792258900015
 21
195.7530924127999867
 31
0.0
  0
LINE
  5
94
100
AcDbEntity
100
AcDbLine
  8
X-FLAG-FLAT
 62
256
370
-1
  6
ByLayer
 10
101.0
 20
191.7530924127999867
 30
0.0
 11
101.0
 21
180.0
 31
0.0
  0
LINE
  5
95
100
AcDbEntity
100
AcDbLine
  8
X-FLAG-FLAT
 62
256
370
-1
  6
ByLayer
 10
101.0
 20
180.0
 30
0.0
 11
103.3627922589000008
 21
180.0
 31
0.0
  0
LINE
  5
96
100
AcDbEntity
100
AcDbLine
  8
X-FLAG-FLAT
 62
256
370
-1
  6
ByLayer
 10
103.3627922589000008
 20
180.0
 30
0.0
 11
103.3627922589000008
 21
141.7530924127999583
 31
0.0
  0
LINE
  5
97
100
AcDbEntity
100
AcDbLine
  8
X-FLAG-FLAT
 62
256
370
-1
  6
ByLayer
 10
70.3627922589000008
 20
191.7530924128000152
 30
0.0
 11
101.0
 21
191.7530924127999867
 31
0.0
  0
LINE
  5
98
100
AcDbEntity
100
AcDbLine
  8
Z-FLAG
 62
256
370
-1
  6
ByLayer
 10
137.4402907035999988
 20
152.0839512571000114
 30
0.0
 11
129.4402907035999988
 21
151.9617879484999605
 31
0.0
  0
LINE
  5
99
100
AcDbEntity
100
AcDbLine
  8
Z-FLAG
 62
256
370
-1
  6
ByLayer
 10
137.4402907035999988
 20
152.0839512571000114
 30
0.0
 11
137.4402907035999988
 21
112.0839512571000256
 31
0.0
  0
LINE
  5
9A
100
AcDbEntity
100
AcDbLine
  8
Z-FLAG
 62
256
370
-1
  6
ByLayer
 10
137.4402907035999988
 20
112.0839512571000256
 30
0.0
 11
129.4402907035999988
 21
112.0839512571000114
 31
0.0
  0
LINE
  5
9B
100
AcDbEntity
100
AcDbLine
  8
Z-FLAG
 62
256
370
-1
  6
ByLayer
 10
129.4402907035999988
 20
112.0839512571000114
 30
0.0
 11
129.4402907035999988
 21
151.9617879484999605
 31
0.0
  0
LINE
  5
9C
100
AcDbEntity
100
AcDbLine
  8
Z-FLAG
 62
256
370
-1
  6
ByLayer
 10
137.4402907035999988
 20
137.0839512571000398
 30
0.0
 11
129.4402907035999988
 21
137.0839512571000114
 31
0.0
  0
CIRCLE
  5
9D
100
AcDbEntity
100
AcDbCircle
  8
Z-FLAG
 62
256
370
-1
  6
ByLayer
 10
125.4402907035999988
 20
186.0839512571000114
 30
0.0
 40
2.0597718193589594
  0
LINE
  5
9E
100
AcDbEntity
100
AcDbLine
  8
Z-FLAG
 62
256
370
-1
  6
ByLayer
 10
119.440290703600013
 20
157.0
 30
0.0
 11
129.4402907035999988
 21
157.0
 31
0.0
  0
LINE
  5
9F
100
AcDbEntity
100
AcDbLine
  8
Z-FLAG
 62
256
370
-1
  6
ByLayer
 10
129.4402907035999988
 20
151.9617879484999605
 30
0.0
 11
129.4402907035999988
 21
157.0
 31
0.0
  0
LINE
  5
A0
100
AcDbEntity
100
AcDbLine
  8
Z-FLAG
 62
256
370
-1
  6
ByLayer
 10
129.0
 20
192.0839512571000398
 30
0.0
 11
129.0
 21
166.0
 31
0.0
  0
LINE
  5
A1
100
AcDbEntity
100
AcDbLine
  8
Z-FLAG
 62
256
370
-1
  6
ByLayer
 10
137.4402907035999988
 20
166.0
 30
0.0
 11
137.4402907035999988
 21
152.0839512571000114
 31
0.0
  0
LINE
  5
A2
100
AcDbEntity
100
AcDbLine
  8
Z-FLAG
 62
256
370
-1
  6
ByLayer
 10
129.0
 20
166.0
 30
0.0
 11
137.4402907035999988
 21
166.0
 31
0.0
  0
LINE
  5
A3
100
AcDbEntity
100
AcDbLine
  8
Z-FLAG
 62
256
370
-1
  6
ByLayer
 10
119.4402907035999988
 20
192.0839512571000114
 30
0.0
 11
129.0
 21
192.0839512571000398
 31
0.0
  0
LINE
  5
A4
100
AcDbEntity
100
AcDbLine
  8
Z-FLAG
 62
256
370
-1
  6
ByLayer
 10
119.440290703600013
 20
157.0
 30
0.0
 11
119.4402907035999988
 21
192.0839512571000114
 31
0.0
  0
ENDSEC
  0
SECTION
  2
OBJECTS
  0
DICTIONARY
  5
C
100
AcDbDictionary
280
0
281
1
  3
ACAD_GROUP
350
D
  3
ACAD_LAYOUT
350
1A
  3
ACAD_MLINESTYLE
350
17
  3
ACAD_PLOTSETTINGS
350
19
  3
ACAD_PLOTSTYLENAME
350
E
  3
AcDbVariableDictionary
350
A5
  0
DICTIONARY
  5
D
100
AcDbDictionary
280
0
281
1
  0
ACDBDICTIONARYWDFLT
  5
E
100
AcDbDictionary
281
1
  3
Normal
350
F
100
AcDbDictionaryWithDefault
340
F
  0
ACDBPLACEHOLDER
  5
F
  0
DICTIONARY
  5
17
100
AcDbDictionary
280
0
281
1
  3
Standard
350
18
  0
MLINESTYLE
  5
18
100
AcDbMlineStyle
  2
STANDARD
 70
0
  3

 62
256
 51
90.0
 52
90.0
 71
2
 49
0.5
 62
256
  6
BYLAYER
 49
-0.5
 62
256
  6
BYLAYER
  0
DICTIONARY
  5
19
100
AcDbDictionary
280
0
281
1
  0
DICTIONARY
  5
1A
100
AcDbDictionary
281
1
  3
Layout1
350
1E
  3
Layout2
350
26
  3
Model
350
22
  0
LAYOUT
  5
1E
100
AcDbPlotSettings
  1

  2
C:\Program Files\AutoCAD 2002\plotters\DWF ePlot (optimized for plotting).pc3
  4

  6

 40
0.0
 41
0.0
 42
0.0
 43
0.0
 44
0.0
 45
0.0
 46
0.0
 47
0.0
 48
0.0
 49
0.0
140
0.0
141
0.0
142
1.0
143
1.0
 70
688
 72
0
 73
0
 74
5
  7

 75
16
147
1.0
148
0.0
149
0.0
100
AcDbLayout
  1
Layout1
 70
1
 71
1
 10
0.0
 20
0.0
 11
420.0
 21
297.0
 12
0.0
 22
0.0
 32
0.0
 14
100000000000000000000.0
 24
100000000000000000000.0
 34
100000000000000000000.0
 15
-100000000000000000000.0
 25
-100000000000000000000.0
 35
-100000000000000000000.0
146
0.0
 13
0.0
 23
0.0
 33
0.0
 16
1.0
 26
0.0
 36
0.0
 17
0.0
 27
1.0
 37
0.0
 76
0
330
1B
  0
LAYOUT
  5
22
100
AcDbPlotSettings
  1

  2
C:\Program Files\AutoCAD 2002\plotters\DWF ePlot (optimized for plotting).pc3
  4

  6

 40
0.0
 41
0.0
 42
0.0
 43
0.0
 44
0.0
 45
0.0
 46
0.0
 47
0.0
 48
0.0
 49
0.0
140
0.0
141
0.0
142
1.0
143
1.0
 70
1712
 72
0
 73
0
 74
0
  7

 75
0
147
1.0
148
0.0
149
0.0
100
AcDbLayout
  1
Model
 70
1
 71
0
 10
0.0
 20
0.0
 11
12.0
 21
9.0
 12
0.0
 22
0.0
 32
0.0
 14
0.0
 24
0.0
 34
0.0
 15
0.0
 25
0.0
 35
0.0
146
0.0
 13
0.0
 23
0.0
 33
0.0
 16
1.0
 26
0.0
 36
0.0
 17
0.0
 27
1.0
 37
0.0
 76
0
330
1F
  0
LAYOUT
  5
26
100
AcDbPlotSettings
  1

  2
C:\Program Files\AutoCAD 2002\plotters\DWF ePlot (optimized for plotting).pc3
  4

  6

 40
0.0
 41
0.0
 42
0.0
 43
0.0
 44
0.0
 45
0.0
 46
0.0
 47
0.0
 48
0.0
 49
0.0
140
0.0
141
0.0
142
1.0
143
1.0
 70
688
 72
0
 73
0
 74
5
  7

 75
16
147
1.0
148
0.0
149
0.0
100
AcDbLayout
  1
Layout2
 70
1
 71
2
 10
0.0
 20
0.0
 11
12.0
 21
9.0
 12
0.0
 22
0.0
 32
0.0
 14
0.0
 24
0.0
 34
0.0
 15
0.0
 25
0.0
 35
0.0
146
0.0
 13
0.0
 23
0.0
 33
0.0
 16
1.0
 26
0.0
 36
0.0
 17
0.0
 27
1.0
 37
0.0
 76
0
330
23
  0
DICTIONARY
  5
A5
100
AcDbDictionary
281
1
  3
DIMASSOC
350
A7
  3
HIDETEXT
350
A6
  0
DICTIONARYVAR
  5
A6
100
DictionaryVariables
280
0
  1
2
  0
DICTIONARYVAR
  5
A7
100
DictionaryVariables
280
0
  1
1
  0
ENDSEC
  0
EOF
