  0
SECTION
  2
HEADER
  9
$ACADVER
  1
AC1015
  9
$ACADMAINTVER
 70
    18
  9
$DWGCODEPAGE
  3
ANSI_1252
  9
$INSBASE
 10
0.0
 20
0.0
 30
0.0
  9
$EXTMIN
 10
0.0
 20
0.0
 30
0.0
  9
$EXTMAX
 10
420.0
 20
297.0
 30
0.0
  9
$LIMMIN
 10
0.0
 20
0.0
  9
$LIMMAX
 10
420.0
 20
297.0
  9
$ORTHOMODE
 70
     0
  9
$REGENMODE
 70
     1
  9
$FILLMODE
 70
     1
  9
$QTEXTMODE
 70
     0
  9
$MIRRTEXT
 70
     0
  9
$LTSCALE
 40
1.0
  9
$ATTMODE
 70
     1
  9
$TEXTSIZE
 40
0.2
  9
$TRACEWID
 40
0.05
  9
$TEXTSTYLE
  7
Standard
  9
$CLAYER
  8
0
  9
$CELTYPE
  6
ByLayer
  9
$CECOLOR
 62
   256
  9
$CELTSCALE
 40
1.0
  9
$DISPSILH
 70
     0
  9
$DIMSCALE
 40
1.0
  9
$DIMASZ
 40
1.799999999999999
  9
$DIMEXO
 40
0.0625
  9
$DIMDLI
 40
0.38
  9
$DIMRND
 40
0.0
  9
$DIMDLE
 40
0.0
  9
$DIMEXE
 40
0.18
  9
$DIMTP
 40
0.0
  9
$DIMTM
 40
0.0
  9
$DIMTXT
 40
0.3499999940395355
  9
$DIMCEN
 40
0.09
  9
$DIMTSZ
 40
0.0
  9
$DIMTOL
 70
     0
  9
$DIMLIM
 70
     0
  9
$DIMTIH
 70
     1
  9
$DIMTOH
 70
     1
  9
$DIMSE1
 70
     0
  9
$DIMSE2
 70
     0
  9
$DIMTAD
 70
     0
  9
$DIMZIN
 70
     0
  9
$DIMBLK
  1

  9
$DIMASO
 70
     1
  9
$DIMSHO
 70
     1
  9
$DIMPOST
  1

  9
$DIMAPOST
  1

  9
$DIMALT
 70
     0
  9
$DIMALTD
 70
     2
  9
$DIMALTF
 40
25.4
  9
$DIMLFAC
 40
1.0
  9
$DIMTOFL
 70
     0
  9
$DIMTVP
 40
0.0
  9
$DIMTIX
 70
     0
  9
$DIMSOXD
 70
     0
  9
$DIMSAH
 70
     0
  9
$DIMBLK1
  1

  9
$DIMBLK2
  1

  9
$DIMSTYLE
  2
Standard
  9
$DIMCLRD
 70
     0
  9
$DIMCLRE
 70
     0
  9
$DIMCLRT
 70
     0
  9
$DIMTFAC
 40
1.0
  9
$DIMGAP
 40
0.09
  9
$DIMJUST
 70
     0
  9
$DIMSD1
 70
     0
  9
$DIMSD2
 70
     0
  9
$DIMTOLJ
 70
     1
  9
$DIMTZIN
 70
     0
  9
$DIMALTZ
 70
     0
  9
$DIMALTTZ
 70
     0
  9
$DIMUPT
 70
     0
  9
$DIMDEC
 70
     4
  9
$DIMTDEC
 70
     4
  9
$DIMALTU
 70
     2
  9
$DIMALTTD
 70
     2
  9
$DIMTXSTY
  7
Standard
  9
$DIMAUNIT
 70
     0
  9
$DIMADEC
 70
     0
  9
$DIMALTRND
 40
0.0
  9
$DIMAZIN
 70
     0
  9
$DIMDSEP
 70
    46
  9
$DIMATFIT
 70
     3
  9
$DIMFRAC
 70
     0
  9
$DIMLDRBLK
  1

  9
$DIMLUNIT
 70
     2
  9
$DIMLWD
 70
    -2
  9
$DIMLWE
 70
    -2
  9
$DIMTMOVE
 70
     0
  9
$LUNITS
 70
     2
  9
$LUPREC
 70
     4
  9
$SKETCHINC
 40
0.1
  9
$FILLETRAD
 40
0.0
  9
$AUNITS
 70
     0
  9
$AUPREC
 70
     0
  9
$MENU
  1
.
  9
$ELEVATION
 40
0.0
  9
$PELEVATION
 40
0.0
  9
$THICKNESS
 40
0.0
  9
$LIMCHECK
 70
     0
  9
$CHAMFERA
 40
0.0
  9
$CHAMFERB
 40
0.0
  9
$CHAMFERC
 40
0.0
  9
$CHAMFERD
 40
0.0
  9
$SKPOLY
 70
     0
  9
$TDCREATE
 40
2454670.452058391
  9
$TDUCREATE
 40
2454670.410391725
  9
$TDUPDATE
 40
2454670.452058391
  9
$TDUUPDATE
 40
2454670.410391725
  9
$TDINDWG
 40
0.0000187731
  9
$TDUSRTIMER
 40
0.0000187731
  9
$USRTIMER
 70
     1
  9
$ANGBASE
 50
0.0
  9
$ANGDIR
 70
     0
  9
$PDMODE
 70
     0
  9
$PDSIZE
 40
0.0
  9
$PLINEWID
 40
0.0
  9
$SPLFRAME
 70
     0
  9
$SPLINETYPE
 70
     6
  9
$SPLINESEGS
 70
     8
  9
$HANDSEED
  5
289
  9
$SURFTAB1
 70
     6
  9
$SURFTAB2
 70
     6
  9
$SURFTYPE
 70
     6
  9
$SURFU
 70
     6
  9
$SURFV
 70
     6
  9
$UCSBASE
  2

  9
$UCSNAME
  2

  9
$UCSORG
 10
0.0
 20
0.0
 30
0.0
  9
$UCSXDIR
 10
1.0
 20
0.0
 30
0.0
  9
$UCSYDIR
 10
0.0
 20
1.0
 30
0.0
  9
$UCSORTHOREF
  2

  9
$UCSORTHOVIEW
 70
     0
  9
$UCSORGTOP
 10
0.0
 20
0.0
 30
0.0
  9
$UCSORGBOTTOM
 10
0.0
 20
0.0
 30
0.0
  9
$UCSORGLEFT
 10
0.0
 20
0.0
 30
0.0
  9
$UCSORGRIGHT
 10
0.0
 20
0.0
 30
0.0
  9
$UCSORGFRONT
 10
0.0
 20
0.0
 30
0.0
  9
$UCSORGBACK
 10
0.0
 20
0.0
 30
0.0
  9
$PUCSBASE
  2

  9
$PUCSNAME
  2

  9
$PUCSORG
 10
0.0
 20
0.0
 30
0.0
  9
$PUCSXDIR
 10
1.0
 20
0.0
 30
0.0
  9
$PUCSYDIR
 10
0.0
 20
1.0
 30
0.0
  9
$PUCSORTHOREF
  2

  9
$PUCSORTHOVIEW
 70
     0
  9
$PUCSORGTOP
 10
0.0
 20
0.0
 30
0.0
  9
$PUCSORGBOTTOM
 10
0.0
 20
0.0
 30
0.0
  9
$PUCSORGLEFT
 10
0.0
 20
0.0
 30
0.0
  9
$PUCSORGRIGHT
 10
0.0
 20
0.0
 30
0.0
  9
$PUCSORGFRONT
 10
0.0
 20
0.0
 30
0.0
  9
$PUCSORGBACK
 10
0.0
 20
0.0
 30
0.0
  9
$USERI1
 70
     0
  9
$USERI2
 70
     0
  9
$USERI3
 70
     0
  9
$USERI4
 70
     0
  9
$USERI5
 70
     0
  9
$USERR1
 40
0.0
  9
$USERR2
 40
0.0
  9
$USERR3
 40
0.0
  9
$USERR4
 40
0.0
  9
$USERR5
 40
0.0
  9
$WORLDVIEW
 70
     1
  9
$SHADEDGE
 70
     3
  9
$SHADEDIF
 70
    70
  9
$TILEMODE
 70
     1
  9
$MAXACTVP
 70
    64
  9
$PINSBASE
 10
0.0
 20
0.0
 30
0.0
  9
$PLIMCHECK
 70
     0
  9
$PEXTMIN
 10
0.0
 20
0.0
 30
0.0
  9
$PEXTMAX
 10
420.0
 20
297.0
 30
0.0
  9
$PLIMMIN
 10
0.0
 20
0.0
  9
$PLIMMAX
 10
420.0
 20
297.0
  9
$UNITMODE
 70
     0
  9
$VISRETAIN
 70
     1
  9
$PLINEGEN
 70
     0
  9
$PSLTSCALE
 70
     1
  9
$TREEDEPTH
 70
  3020
  9
$CMLSTYLE
  2
Standard
  9
$CMLJUST
 70
     0
  9
$CMLSCALE
 40
1.0
  9
$PROXYGRAPHICS
 70
     1
  9
$MEASUREMENT
 70
     1
  9
$CELWEIGHT
370
    -1
  9
$ENDCAPS
280
     0
  9
$JOINSTYLE
280
     0
  9
$LWDISPLAY
290
     0
  9
$INSUNITS
 70
     4
  9
$HYPERLINKBASE
  1

  9
$STYLESHEET
  1

  9
$XEDIT
290
     1
  9
$CEPSNTYPE
380
     0
  9
$PSTYLEMODE
290
     1
  9
$FINGERPRINTGUID
  2
{957EB8BD-B1CB-432B-9497-5194FA736EDC}
  9
$VERSIONGUID
  2
{F0539855-98D3-4F5B-8BA8-A3C366CB493D}
  9
$EXTNAMES
290
     1
  9
$PSVPSCALE
 40
0.0
  9
$OLESTARTUP
290
     0
  0
ENDSEC
  0
SECTION
  2
CLASSES
  0
CLASS
  1
ACDBDICTIONARYWDFLT
  2
AcDbDictionaryWithDefault
  3
ObjectDBX Classes
 90
        0
280
     0
281
     0
  0
CLASS
  1
MATERIAL
  2
AcDbMaterial
  3
ObjectDBX Classes
 90
     1153
280
     0
281
     0
  0
CLASS
  1
VISUALSTYLE
  2
AcDbVisualStyle
  3
ObjectDBX Classes
 90
     4095
280
     0
281
     0
  0
CLASS
  1
SCALE
  2
AcDbScale
  3
ObjectDBX Classes
 90
     1153
280
     0
281
     0
  0
CLASS
  1
TABLESTYLE
  2
AcDbTableStyle
  3
ObjectDBX Classes
 90
     4095
280
     0
281
     0
  0
CLASS
  1
MLEADERSTYLE
  2
AcDbMLeaderStyle
  3
ACDB_MLEADERSTYLE_CLASS
 90
     4095
280
     0
281
     0
  0
CLASS
  1
DICTIONARYVAR
  2
AcDbDictionaryVar
  3
ObjectDBX Classes
 90
        0
280
     0
281
     0
  0
CLASS
  1
CELLSTYLEMAP
  2
AcDbCellStyleMap
  3
ObjectDBX Classes
 90
     1152
280
     0
281
     0
  0
CLASS
  1
ACDBPLACEHOLDER
  2
AcDbPlaceHolder
  3
ObjectDBX Classes
 90
        0
280
     0
281
     0
  0
CLASS
  1
LAYOUT
  2
AcDbLayout
  3
ObjectDBX Classes
 90
        0
280
     0
281
     0
  0
ENDSEC
  0
SECTION
  2
TABLES
  0
TABLE
  2
VPORT
  5
8
330
0
100
AcDbSymbolTable
 70
     1
  0
VPORT
  5
5F
330
8
100
AcDbSymbolTableRecord
100
AcDbViewportTableRecord
  2
*Active
 70
     0
 10
0.0
 20
0.0
 11
1.0
 21
1.0
 12
210.0
 22
148.5
 13
0.0
 23
0.0
 14
1.0
 24
1.0
 15
0.0
 25
0.0
 16
0.0
 26
0.0
 36
1.0
 17
0.0
 27
0.0
 37
0.0
 40
297.0
 41
1.414141414141414
 42
50.0
 43
0.0
 44
0.0
 50
0.0
 51
0.0
 71
     0
 72
   100
 73
     1
 74
     1
 75
     0
 76
     0
 77
     0
 78
     0
281
     0
 65
     1
110
0.0
120
0.0
130
0.0
111
1.0
121
0.0
131
0.0
112
0.0
122
1.0
132
0.0
 79
     0
146
0.0
  0
ENDTAB
  0
TABLE
  2
LTYPE
  5
5
330
0
100
AcDbSymbolTable
 70
    59
  0
LTYPE
  5
63
330
5
100
AcDbSymbolTableRecord
100
AcDbLinetypeTableRecord
  2
ByBlock
 70
     0
  3

 72
    65
 73
     0
 40
0.0
  0
LTYPE
  5
64
330
5
100
AcDbSymbolTableRecord
100
AcDbLinetypeTableRecord
  2
ByLayer
 70
     0
  3

 72
    65
 73
     0
 40
0.0
  0
LTYPE
  5
65
330
5
100
AcDbSymbolTableRecord
100
AcDbLinetypeTableRecord
  2
Continuous
 70
     0
  3
Solid line
 72
    65
 73
     0
 40
0.0
  0
LTYPE
  5
7D
330
5
100
AcDbSymbolTableRecord
100
AcDbLinetypeTableRecord
  2
Section_View_Lines
 70
     0
  3
Section View Lines
 72
    65
 73
     4
 40
0.8406
 49
0.6614
 74
     0
 49
-0.0827
 74
     0
 49
0.0138
 74
     0
 49
-0.0827
 74
     0
  0
LTYPE
  5
7E
330
5
100
AcDbSymbolTableRecord
100
AcDbLinetypeTableRecord
  2
CHAIN
 70
     0
  3
Chain ____ _ ____ _ ____ _ ____ _ ____ _ ____
 72
    65
 73
     4
 40
0.3543
 49
0.2362
 74
     0
 49
-0.0295
 74
     0
 49
0.0591
 74
     0
 49
-0.0295
 74
     0
  0
LTYPE
  5
7F
330
5
100
AcDbSymbolTableRecord
100
AcDbLinetypeTableRecord
  2
DASH_DOT
 70
     0
  3
Dash dot _._._._._._._._._._._._._._._.
 72
    65
 73
     4
 40
0.182
 49
0.1181
 74
     0
 49
-0.0295
 74
     0
 49
0.0049
 74
     0
 49
-0.0295
 74
     0
  0
LTYPE
  5
80
330
5
100
AcDbSymbolTableRecord
100
AcDbLinetypeTableRecord
  2
DASH_DOUBLE_DOT
 70
     0
  3
Dash Double Dot __ __ . __ __ . __ __ . __ _
 72
    65
 73
     6
 40
0.2164
 49
0.1181
 74
     0
 49
-0.0295
 74
     0
 49
0.0049
 74
     0
 49
-0.0295
 74
     0
 49
0.0049
 74
     0
 49
-0.0295
 74
     0
  0
LTYPE
  5
81
330
5
100
AcDbSymbolTableRecord
100
AcDbLinetypeTableRecord
  2
DASH_TRIPLE_DOT
 70
     0
  3
Dash Triple-Dot _ . . . _ . . . _ . . . _
 72
    65
 73
     8
 40
0.2508
 49
0.1181
 74
     0
 49
-0.0295
 74
     0
 49
0.0049
 74
     0
 49
-0.0295
 74
     0
 49
0.0049
 74
     0
 49
-0.0295
 74
     0
 49
0.0049
 74
     0
 49
-0.0295
 74
     0
  0
LTYPE
  5
82
330
5
100
AcDbSymbolTableRecord
100
AcDbLinetypeTableRecord
  2
DASHED
 70
     0
  3
Dashed __ __ __ __ __ __ __ __ __ __ __ __ __ _
 72
    65
 73
     2
 40
0.2068
 49
0.1655
 74
     0
 49
-0.0413
 74
     0
  0
LTYPE
  5
83
330
5
100
AcDbSymbolTableRecord
100
AcDbLinetypeTableRecord
  2
DASHED_SPACE
 70
     0
  3
Dashed Space __ __ __ __ __ __ __ __ __ __ __ _
 72
    65
 73
     2
 40
0.2067
 49
0.1654
 74
     0
 49
-0.0413
 74
     0
  0
LTYPE
  5
84
330
5
100
AcDbSymbolTableRecord
100
AcDbLinetypeTableRecord
  2
DOTTED
 70
     0
  3
Dotted . . . . . . . . . . . . . . . . . . . . 
 72
    65
 73
     2
 40
0.0481
 49
0.0068
 74
     0
 49
-0.0413
 74
     0
  0
LTYPE
  5
85
330
5
100
AcDbSymbolTableRecord
100
AcDbLinetypeTableRecord
  2
DOUBLE_DASH_CHAIN
 70
     0
  3
Double Dash Chain ___ _ _ ___ _ _ ___ _ _ ___ _
 72
    65
 73
     6
 40
1.240299999999999
 49
0.6614
 74
     0
 49
-0.0827
 74
     0
 49
0.1654
 74
     0
 49
-0.0827
 74
     0
 49
0.1654
 74
     0
 49
-0.0827
 74
     0
  0
LTYPE
  5
86
330
5
100
AcDbSymbolTableRecord
100
AcDbLinetypeTableRecord
  2
DOUBLE_DASH_DOT
 70
     0
  3
Double Dash Dot __ __ . __ __ . __ __ . __ _
 72
    65
 73
     6
 40
0.3296
 49
0.1181
 74
     0
 49
-0.0295
 74
     0
 49
0.1181
 74
     0
 49
-0.0295
 74
     0
 49
0.0049
 74
     0
 49
-0.0295
 74
     0
  0
LTYPE
  5
87
330
5
100
AcDbSymbolTableRecord
100
AcDbLinetypeTableRecord
  2
DOUBLE_DASH_DOUBLE_DOT
 70
     0
  3
Double Dash Double Dot _ _ . . _ _ . . _ _
 72
    65
 73
     8
 40
0.364
 49
0.1181
 74
     0
 49
-0.0295
 74
     0
 49
0.1181
 74
     0
 49
-0.0295
 74
     0
 49
0.0049
 74
     0
 49
-0.0295
 74
     0
 49
0.0049
 74
     0
 49
-0.0295
 74
     0
  0
LTYPE
  5
88
330
5
100
AcDbSymbolTableRecord
100
AcDbLinetypeTableRecord
  2
DOUBLE_DASH_TRIPLE_DOT
 70
     0
  3
Double Dash Triple Dot __ __ . . . __ __ . . .
 72
    65
 73
    10
 40
0.3984
 49
0.1181
 74
     0
 49
-0.0295
 74
     0
 49
0.1181
 74
     0
 49
-0.0295
 74
     0
 49
0.0049
 74
     0
 49
-0.0295
 74
     0
 49
0.0049
 74
     0
 49
-0.0295
 74
     0
 49
0.0049
 74
     0
 49
-0.0295
 74
     0
  0
LTYPE
  5
89
330
5
100
AcDbSymbolTableRecord
100
AcDbLinetypeTableRecord
  2
LONG_DASH_DOTTED
 70
     0
  3
Long Dash Dotted ____ . ____ . ____ . ____ . _
 72
    65
 73
     4
 40
0.3001
 49
0.2362
 74
     0
 49
-0.0295
 74
     0
 49
0.0049
 74
     0
 49
-0.0295
 74
     0
  0
LTYPE
  5
8A
330
5
100
AcDbSymbolTableRecord
100
AcDbLinetypeTableRecord
  2
LONG_DASH_DOUBLE_DOT
 70
     0
  3
Long Dash Double Dot ____ . . ____ . . ____ . .
 72
    65
 73
     6
 40
0.3345
 49
0.2362
 74
     0
 49
-0.0295
 74
     0
 49
0.0049
 74
     0
 49
-0.0295
 74
     0
 49
0.0049
 74
     0
 49
-0.0295
 74
     0
  0
LTYPE
  5
8B
330
5
100
AcDbSymbolTableRecord
100
AcDbLinetypeTableRecord
  2
LONG_DASH_TRIPLE_DOT
 70
     0
  3
Long Dash Triple Dot ____ ... ____ ... ____
 72
    65
 73
     8
 40
0.3689
 49
0.2362
 74
     0
 49
-0.0295
 74
     0
 49
0.0049
 74
     0
 49
-0.0295
 74
     0
 49
0.0049
 74
     0
 49
-0.0295
 74
     0
 49
0.0049
 74
     0
 49
-0.0295
 74
     0
  0
LTYPE
  5
8C
330
5
100
AcDbSymbolTableRecord
100
AcDbLinetypeTableRecord
  2
BORDER
 70
     0
  3
Border __ __ . __ __ . __ __ . __ __ . __ __ .
 72
    65
 73
     6
 40
44.45
 49
12.7
 74
     0
 49
-6.349999999999999
 74
     0
 49
12.7
 74
     0
 49
-6.349999999999999
 74
     0
 49
0.0
 74
     0
 49
-6.349999999999999
 74
     0
  0
LTYPE
  5
8D
330
5
100
AcDbSymbolTableRecord
100
AcDbLinetypeTableRecord
  2
BORDER2
 70
     0
  3
Border (.5x) __.__.__.__.__.__.__.__.__.__.__.
 72
    65
 73
     6
 40
22.225
 49
6.349999999999999
 74
     0
 49
-3.174999999999999
 74
     0
 49
6.349999999999999
 74
     0
 49
-3.174999999999999
 74
     0
 49
0.0
 74
     0
 49
-3.174999999999999
 74
     0
  0
LTYPE
  5
8E
330
5
100
AcDbSymbolTableRecord
100
AcDbLinetypeTableRecord
  2
BORDERX2
 70
     0
  3
Border (2x) ____  ____  .  ____  ____  .  ___
 72
    65
 73
     6
 40
88.9
 49
25.4
 74
     0
 49
-12.7
 74
     0
 49
25.4
 74
     0
 49
-12.7
 74
     0
 49
0.0
 74
     0
 49
-12.7
 74
     0
  0
LTYPE
  5
8F
330
5
100
AcDbSymbolTableRecord
100
AcDbLinetypeTableRecord
  2
CENTER
 70
     0
  3
Center ____ _ ____ _ ____ _ ____ _ ____ _ ____
 72
    65
 73
     4
 40
50.8
 49
31.75
 74
     0
 49
-6.349999999999999
 74
     0
 49
6.349999999999999
 74
     0
 49
-6.349999999999999
 74
     0
  0
LTYPE
  5
90
330
5
100
AcDbSymbolTableRecord
100
AcDbLinetypeTableRecord
  2
CENTER2
 70
     0
  3
Center (.5x) ___ _ ___ _ ___ _ ___ _ ___ _ ___
 72
    65
 73
     4
 40
28.575
 49
19.05
 74
     0
 49
-3.174999999999999
 74
     0
 49
3.174999999999999
 74
     0
 49
-3.174999999999999
 74
     0
  0
LTYPE
  5
91
330
5
100
AcDbSymbolTableRecord
100
AcDbLinetypeTableRecord
  2
CENTERX2
 70
     0
  3
Center (2x) ________  __  ________  __  _____
 72
    65
 73
     4
 40
101.6
 49
63.5
 74
     0
 49
-12.7
 74
     0
 49
12.7
 74
     0
 49
-12.7
 74
     0
  0
LTYPE
  5
92
330
5
100
AcDbSymbolTableRecord
100
AcDbLinetypeTableRecord
  2
DASHDOT2
 70
     0
  3
Dash dot (.5x) _._._._._._._._._._._._._._._.
 72
    65
 73
     4
 40
12.7
 49
6.349999999999999
 74
     0
 49
-3.174999999999999
 74
     0
 49
0.0
 74
     0
 49
-3.174999999999999
 74
     0
  0
LTYPE
  5
93
330
5
100
AcDbSymbolTableRecord
100
AcDbLinetypeTableRecord
  2
DASHDOTX2
 70
     0
  3
Dash dot (2x) ____  .  ____  .  ____  .  ___
 72
    65
 73
     4
 40
50.8
 49
25.4
 74
     0
 49
-12.7
 74
     0
 49
0.0
 74
     0
 49
-12.7
 74
     0
  0
LTYPE
  5
94
330
5
100
AcDbSymbolTableRecord
100
AcDbLinetypeTableRecord
  2
DASHED2
 70
     0
  3
Dashed (.5x) _ _ _ _ _ _ _ _ _ _ _ _ _ _ _ _ _
 72
    65
 73
     2
 40
9.524999999999998
 49
6.349999999999999
 74
     0
 49
-3.174999999999999
 74
     0
  0
LTYPE
  5
95
330
5
100
AcDbSymbolTableRecord
100
AcDbLinetypeTableRecord
  2
DASHEDX2
 70
     0
  3
Dashed (2x) ____  ____  ____  ____  ____  ___
 72
    65
 73
     2
 40
38.1
 49
25.4
 74
     0
 49
-12.7
 74
     0
  0
LTYPE
  5
96
330
5
100
AcDbSymbolTableRecord
100
AcDbLinetypeTableRecord
  2
DIVIDE
 70
     0
  3
Divide ____ . . ____ . . ____ . . ____ . . ____
 72
    65
 73
     6
 40
31.75
 49
12.7
 74
     0
 49
-6.349999999999999
 74
     0
 49
0.0
 74
     0
 49
-6.349999999999999
 74
     0
 49
0.0
 74
     0
 49
-6.349999999999999
 74
     0
  0
LTYPE
  5
97
330
5
100
AcDbSymbolTableRecord
100
AcDbLinetypeTableRecord
  2
DIVIDE2
 70
     0
  3
Divide (.5x) __..__..__..__..__..__..__..__.._
 72
    65
 73
     6
 40
15.875
 49
6.349999999999999
 74
     0
 49
-3.174999999999999
 74
     0
 49
0.0
 74
     0
 49
-3.174999999999999
 74
     0
 49
0.0
 74
     0
 49
-3.174999999999999
 74
     0
  0
LTYPE
  5
98
330
5
100
AcDbSymbolTableRecord
100
AcDbLinetypeTableRecord
  2
DIVIDEX2
 70
     0
  3
Divide (2x) ________  .  .  ________  .  .  _
 72
    65
 73
     6
 40
63.49999999999999
 49
25.4
 74
     0
 49
-12.7
 74
     0
 49
0.0
 74
     0
 49
-12.7
 74
     0
 49
0.0
 74
     0
 49
-12.7
 74
     0
  0
LTYPE
  5
99
330
5
100
AcDbSymbolTableRecord
100
AcDbLinetypeTableRecord
  2
DOT
 70
     0
  3
Dot . . . . . . . . . . . . . . . . . . . . . .
 72
    65
 73
     2
 40
6.349999999999999
 49
0.0
 74
     0
 49
-6.349999999999999
 74
     0
  0
LTYPE
  5
9A
330
5
100
AcDbSymbolTableRecord
100
AcDbLinetypeTableRecord
  2
DOT2
 70
     0
  3
Dot (.5x) .....................................
 72
    65
 73
     2
 40
3.174999999999999
 49
0.0
 74
     0
 49
-3.174999999999999
 74
     0
  0
LTYPE
  5
9B
330
5
100
AcDbSymbolTableRecord
100
AcDbLinetypeTableRecord
  2
DOTX2
 70
     0
  3
Dot (2x) .  .  .  .  .  .  .  .  .  .  .  .  . 
 72
    65
 73
     2
 40
12.7
 49
0.0
 74
     0
 49
-12.7
 74
     0
  0
LTYPE
  5
9C
330
5
100
AcDbSymbolTableRecord
100
AcDbLinetypeTableRecord
  2
HIDDEN
 70
     0
  3
Hidden __ __ __ __ __ __ __ __ __ __ __ __ __ _
 72
    65
 73
     2
 40
9.524999999999998
 49
6.349999999999999
 74
     0
 49
-3.174999999999999
 74
     0
  0
LTYPE
  5
9D
330
5
100
AcDbSymbolTableRecord
100
AcDbLinetypeTableRecord
  2
HIDDEN2
 70
     0
  3
Hidden (.5x) _ _ _ _ _ _ _ _ _ _ _ _ _ _ _ _ _
 72
    65
 73
     2
 40
4.762499999999999
 49
3.174999999999999
 74
     0
 49
-1.587499999999999
 74
     0
  0
LTYPE
  5
9E
330
5
100
AcDbSymbolTableRecord
100
AcDbLinetypeTableRecord
  2
HIDDENX2
 70
     0
  3
Hidden (2x) ____ ____ ____ ____ ____ ____ ____
 72
    65
 73
     2
 40
19.05
 49
12.7
 74
     0
 49
-6.349999999999999
 74
     0
  0
LTYPE
  5
9F
330
5
100
AcDbSymbolTableRecord
100
AcDbLinetypeTableRecord
  2
PHANTOM
 70
     0
  3
Phantom ______  __  __  ______  __  __  ______
 72
    65
 73
     6
 40
63.5
 49
31.75
 74
     0
 49
-6.349999999999999
 74
     0
 49
6.349999999999999
 74
     0
 49
-6.349999999999999
 74
     0
 49
6.349999999999999
 74
     0
 49
-6.349999999999999
 74
     0
  0
LTYPE
  5
A0
330
5
100
AcDbSymbolTableRecord
100
AcDbLinetypeTableRecord
  2
PHANTOM2
 70
     0
  3
Phantom (.5x) ___ _ _ ___ _ _ ___ _ _ ___ _ _
 72
    65
 73
     6
 40
31.75
 49
15.875
 74
     0
 49
-3.174999999999999
 74
     0
 49
3.174999999999999
 74
     0
 49
-3.174999999999999
 74
     0
 49
3.174999999999999
 74
     0
 49
-3.174999999999999
 74
     0
  0
LTYPE
  5
A1
330
5
100
AcDbSymbolTableRecord
100
AcDbLinetypeTableRecord
  2
PHANTOMX2
 70
     0
  3
Phantom (2x) ____________    ____    ____   _
 72
    65
 73
     6
 40
127.0
 49
63.5
 74
     0
 49
-12.7
 74
     0
 49
12.7
 74
     0
 49
-12.7
 74
     0
 49
12.7
 74
     0
 49
-12.7
 74
     0
  0
LTYPE
  5
A2
330
5
100
AcDbSymbolTableRecord
100
AcDbLinetypeTableRecord
  2
ACAD_ISO02W100
 70
     0
  3
ISO dash __ __ __ __ __ __ __ __ __ __ __ __ __
 72
    65
 73
     2
 40
15.0
 49
12.0
 74
     0
 49
-3.0
 74
     0
  0
LTYPE
  5
A3
330
5
100
AcDbSymbolTableRecord
100
AcDbLinetypeTableRecord
  2
ACAD_ISO03W100
 70
     0
  3
ISO dash space __    __    __    __    __    __
 72
    65
 73
     2
 40
30.0
 49
12.0
 74
     0
 49
-18.0
 74
     0
  0
LTYPE
  5
A4
330
5
100
AcDbSymbolTableRecord
100
AcDbLinetypeTableRecord
  2
ACAD_ISO04W100
 70
     0
  3
ISO long-dash dot ____ . ____ . ____ . ____ . _
 72
    65
 73
     4
 40
30.0
 49
24.0
 74
     0
 49
-3.0
 74
     0
 49
0.0
 74
     0
 49
-3.0
 74
     0
  0
LTYPE
  5
A5
330
5
100
AcDbSymbolTableRecord
100
AcDbLinetypeTableRecord
  2
ACAD_ISO05W100
 70
     0
  3
ISO long-dash double-dot ____ .. ____ .. ____ .
 72
    65
 73
     6
 40
33.0
 49
24.0
 74
     0
 49
-3.0
 74
     0
 49
0.0
 74
     0
 49
-3.0
 74
     0
 49
0.0
 74
     0
 49
-3.0
 74
     0
  0
LTYPE
  5
A6
330
5
100
AcDbSymbolTableRecord
100
AcDbLinetypeTableRecord
  2
ACAD_ISO06W100
 70
     0
  3
ISO long-dash triple-dot ____ ... ____ ... ____
 72
    65
 73
     8
 40
36.0
 49
24.0
 74
     0
 49
-3.0
 74
     0
 49
0.0
 74
     0
 49
-3.0
 74
     0
 49
0.0
 74
     0
 49
-3.0
 74
     0
 49
0.0
 74
     0
 49
-3.0
 74
     0
  0
LTYPE
  5
A7
330
5
100
AcDbSymbolTableRecord
100
AcDbLinetypeTableRecord
  2
ACAD_ISO07W100
 70
     0
  3
ISO dot . . . . . . . . . . . . . . . . . . . .
 72
    65
 73
     2
 40
3.0
 49
0.0
 74
     0
 49
-3.0
 74
     0
  0
LTYPE
  5
A8
330
5
100
AcDbSymbolTableRecord
100
AcDbLinetypeTableRecord
  2
ACAD_ISO08W100
 70
     0
  3
ISO long-dash short-dash ____ __ ____ __ ____ _
 72
    65
 73
     4
 40
36.0
 49
24.0
 74
     0
 49
-3.0
 74
     0
 49
6.0
 74
     0
 49
-3.0
 74
     0
  0
LTYPE
  5
A9
330
5
100
AcDbSymbolTableRecord
100
AcDbLinetypeTableRecord
  2
ACAD_ISO09W100
 70
     0
  3
ISO long-dash double-short-dash ____ __ __ ____
 72
    65
 73
     6
 40
45.0
 49
24.0
 74
     0
 49
-3.0
 74
     0
 49
6.0
 74
     0
 49
-3.0
 74
     0
 49
6.0
 74
     0
 49
-3.0
 74
     0
  0
LTYPE
  5
AA
330
5
100
AcDbSymbolTableRecord
100
AcDbLinetypeTableRecord
  2
ACAD_ISO10W100
 70
     0
  3
ISO dash dot __ . __ . __ . __ . __ . __ . __ .
 72
    65
 73
     4
 40
18.0
 49
12.0
 74
     0
 49
-3.0
 74
     0
 49
0.0
 74
     0
 49
-3.0
 74
     0
  0
LTYPE
  5
AB
330
5
100
AcDbSymbolTableRecord
100
AcDbLinetypeTableRecord
  2
ACAD_ISO11W100
 70
     0
  3
ISO double-dash dot __ __ . __ __ . __ __ . __ 
 72
    65
 73
     6
 40
33.0
 49
12.0
 74
     0
 49
-3.0
 74
     0
 49
12.0
 74
     0
 49
-3.0
 74
     0
 49
0.0
 74
     0
 49
-3.0
 74
     0
  0
LTYPE
  5
AC
330
5
100
AcDbSymbolTableRecord
100
AcDbLinetypeTableRecord
  2
ACAD_ISO12W100
 70
     0
  3
ISO dash double-dot __ . . __ . . __ . . __ . .
 72
    65
 73
     6
 40
21.0
 49
12.0
 74
     0
 49
-3.0
 74
     0
 49
0.0
 74
     0
 49
-3.0
 74
     0
 49
0.0
 74
     0
 49
-3.0
 74
     0
  0
LTYPE
  5
AD
330
5
100
AcDbSymbolTableRecord
100
AcDbLinetypeTableRecord
  2
ACAD_ISO13W100
 70
     0
  3
ISO double-dash double-dot __ __ . . __ __ . . 
 72
    65
 73
     8
 40
36.0
 49
12.0
 74
     0
 49
-3.0
 74
     0
 49
12.0
 74
     0
 49
-3.0
 74
     0
 49
0.0
 74
     0
 49
-3.0
 74
     0
 49
0.0
 74
     0
 49
-3.0
 74
     0
  0
LTYPE
  5
AE
330
5
100
AcDbSymbolTableRecord
100
AcDbLinetypeTableRecord
  2
ACAD_ISO14W100
 70
     0
  3
ISO dash triple-dot __ . . . __ . . . __ . . . 
 72
    65
 73
     8
 40
24.0
 49
12.0
 74
     0
 49
-3.0
 74
     0
 49
0.0
 74
     0
 49
-3.0
 74
     0
 49
0.0
 74
     0
 49
-3.0
 74
     0
 49
0.0
 74
     0
 49
-3.0
 74
     0
  0
LTYPE
  5
AF
330
5
100
AcDbSymbolTableRecord
100
AcDbLinetypeTableRecord
  2
ACAD_ISO15W100
 70
     0
  3
ISO double-dash triple-dot __ __ . . . __ __ . 
 72
    65
 73
    10
 40
39.0
 49
12.0
 74
     0
 49
-3.0
 74
     0
 49
12.0
 74
     0
 49
-3.0
 74
     0
 49
0.0
 74
     0
 49
-3.0
 74
     0
 49
0.0
 74
     0
 49
-3.0
 74
     0
 49
0.0
 74
     0
 49
-3.0
 74
     0
  0
LTYPE
  5
B2
330
5
100
AcDbSymbolTableRecord
100
AcDbLinetypeTableRecord
  2
FENCELINE1
 70
     0
  3
Fenceline circle ----0-----0----0-----0----0---
 72
    65
 73
     4
 40
36.83
 49
6.349999999999999
 74
     0
 49
-2.54
 74
     4
 75
   133
340
B1
 46
2.54
 50
0.0
 44
-2.54
 45
0.0
 49
-2.54
 74
     0
 49
25.4
 74
     0
  0
LTYPE
  5
B3
330
5
100
AcDbSymbolTableRecord
100
AcDbLinetypeTableRecord
  2
FENCELINE2
 70
     0
  3
Fenceline square ----[]-----[]----[]-----[]----
 72
    65
 73
     4
 40
36.83
 49
6.349999999999999
 74
     0
 49
-2.54
 74
     4
 75
   132
340
B1
 46
2.54
 50
0.0
 44
-2.54
 45
0.0
 49
-2.54
 74
     0
 49
25.4
 74
     0
  0
LTYPE
  5
B4
330
5
100
AcDbSymbolTableRecord
100
AcDbLinetypeTableRecord
  2
TRACKS
 70
     0
  3
Tracks -|-|-|-|-|-|-|-|-|-|-|-|-|-|-|-|-|-|-|-|
 72
    65
 73
     2
 40
7.62
 49
3.81
 74
     4
 75
   130
340
B1
 46
6.349999999999999
 50
0.0
 44
0.0
 45
0.0
 49
3.81
 74
     0
  0
LTYPE
  5
B5
330
5
100
AcDbSymbolTableRecord
100
AcDbLinetypeTableRecord
  2
BATTING
 70
     0
  3
Batting SSSSSSSSSSSSSSSSSSSSSSSSSSSSSSSSSSSSSSS
 72
    65
 73
     4
 40
10.16254
 49
0.00254
 74
     0
 49
-2.54
 74
     4
 75
   134
340
B1
 46
2.54
 50
0.0
 44
-2.54
 45
0.0
 49
-5.08
 74
     4
 75
   134
340
B1
 46
2.54
 50
180.0
 44
2.54
 45
0.0
 49
-2.54
 74
     0
  0
LTYPE
  5
B6
330
5
100
AcDbSymbolTableRecord
100
AcDbLinetypeTableRecord
  2
HOT_WATER_SUPPLY
 70
     0
  3
Hot water supply ---- HW ---- HW ---- HW ----
 72
    65
 73
     3
 40
22.86
 49
12.7
 74
     0
 49
-5.08
 74
     2
 75
     0
340
5D
 46
2.54
 50
0.0
 44
-2.54
 45
-1.27
  9
HW
 49
-5.08
 74
     0
  0
LTYPE
  5
B7
330
5
100
AcDbSymbolTableRecord
100
AcDbLinetypeTableRecord
  2
GAS_LINE
 70
     0
  3
Gas line ----GAS----GAS----GAS----GAS----GAS---
 72
    65
 73
     3
 40
24.13
 49
12.7
 74
     0
 49
-5.08
 74
     2
 75
     0
340
5D
 46
2.54
 50
0.0
 44
-2.54
 45
-1.27
  9
GAS
 49
-6.349999999999999
 74
     0
  0
LTYPE
  5
B8
330
5
100
AcDbSymbolTableRecord
100
AcDbLinetypeTableRecord
  2
ZIGZAG
 70
     0
  3
Zig zag /\/\/\/\/\/\/\/\/\/\/\/\/\/\/\/\/\/\/\/
 72
    65
 73
     4
 40
20.32254
 49
0.00254
 74
     0
 49
-5.08
 74
     4
 75
   131
340
B1
 46
5.08
 50
0.0
 44
-5.08
 45
0.0
 49
-10.16
 74
     4
 75
   131
340
B1
 46
5.08
 50
180.0
 44
5.08
 45
0.0
 49
-5.08
 74
     0
  0
ENDTAB
  0
TABLE
  2
LAYER
  5
2
330
0
100
AcDbSymbolTable
 70
    25
  0
LAYER
  5
5C
330
2
100
AcDbSymbolTableRecord
100
AcDbLayerTableRecord
  2
0
 70
     0
 62
     7
  6
Continuous
370
    -3
390
F
  0
LAYER
  5
CC
330
2
100
AcDbSymbolTableRecord
100
AcDbLayerTableRecord
  2
Visible (ISO)
 70
     0
 62
     7
  6
Continuous
370
    50
390
F
  0
ENDTAB
  0
TABLE
  2
STYLE
  5
3
330
0
100
AcDbSymbolTable
 70
     3
  0
STYLE
  5
5D
330
3
100
AcDbSymbolTableRecord
100
AcDbTextStyleTableRecord
  2
Standard
 70
     0
 40
0.0
 41
1.0
 50
0.0
 71
     0
 42
0.2
  3
TAHOMA.TTF
  4

1001
ACAD
1000
Tahoma
1071
      256
  0
STYLE
  5
62
330
3
100
AcDbSymbolTableRecord
100
AcDbTextStyleTableRecord
  2
Annotative
 70
     0
 40
0.0
 41
1.0
 50
0.0
 71
     0
 42
0.2
  3

  4

1001
AcadAnnotative
1000
AnnotativeData
1002
{
1070
     1
1070
     1
1002
}
  0
STYLE
  5
B1
330
3
100
AcDbSymbolTableRecord
100
AcDbTextStyleTableRecord
  2

 70
     1
 40
0.0
 41
1.0
 50
0.0
 71
     0
 42
0.2
  3
ltypeshp.shx
  4

  0
ENDTAB
  0
TABLE
  2
VIEW
  5
6
330
0
100
AcDbSymbolTable
 70
     0
  0
ENDTAB
  0
TABLE
  2
UCS
  5
7
330
0
100
AcDbSymbolTable
 70
     0
  0
ENDTAB
  0
TABLE
  2
APPID
  5
9
330
0
100
AcDbSymbolTable
 70
     3
  0
APPID
  5
5E
330
9
100
AcDbSymbolTableRecord
100
AcDbRegAppTableRecord
  2
ACAD
 70
     0
  0
APPID
  5
66
330
9
100
AcDbSymbolTableRecord
100
AcDbRegAppTableRecord
  2
AcadAnnotative
 70
     0
  0
APPID
  5
70
330
9
100
AcDbSymbolTableRecord
100
AcDbRegAppTableRecord
  2
ACAD_MLEADERVER
 70
     0
  0
ENDTAB
  0
TABLE
  2
DIMSTYLE
  5
A
330
0
100
AcDbSymbolTable
 70
     2
100
AcDbDimStyleTable
 71
     0
  0
DIMSTYLE
105
60
330
A
100
AcDbSymbolTableRecord
100
AcDbDimStyleTableRecord
  2
Standard
 70
     0
340
5D
  0
DIMSTYLE
105
61
330
A
100
AcDbSymbolTableRecord
100
AcDbDimStyleTableRecord
  2
Annotative
 70
     0
340
5D
1001
AcadAnnotative
1000
AnnotativeData
1002
{
1070
     1
1070
     1
1002
}
  0
ENDTAB
  0
TABLE
  2
BLOCK_RECORD
  5
1
330
0
100
AcDbSymbolTable
 70
     1
  0
BLOCK_RECORD
  5
75
330
1
100
AcDbSymbolTableRecord
100
AcDbBlockTableRecord
  2
*Model_Space
340
78
  0
BLOCK_RECORD
  5
71
330
1
100
AcDbSymbolTableRecord
100
AcDbBlockTableRecord
  2
*Paper_Space
340
74
  0
BLOCK_RECORD
  5
79
330
1
100
AcDbSymbolTableRecord
100
AcDbBlockTableRecord
  2
*Paper_Space0
340
7C
  0
ENDTAB
  0
ENDSEC
  0
SECTION
  2
BLOCKS
  0
BLOCK
  5
76
330
75
100
AcDbEntity
  8
0
100
AcDbBlockBegin
  2
*Model_Space
 70
     0
 10
0.0
 20
0.0
 30
0.0
  3
*Model_Space
  1

  0
ENDBLK
  5
77
330
75
100
AcDbEntity
  8
0
100
AcDbBlockEnd
  0
BLOCK
  5
72
330
71
100
AcDbEntity
 67
     1
  8
0
100
AcDbBlockBegin
  2
*Paper_Space
 70
     0
 10
0.0
 20
0.0
 30
0.0
  3
*Paper_Space
  1

  0
ENDBLK
  5
73
330
71
100
AcDbEntity
 67
     1
  8
0
100
AcDbBlockEnd
  0
BLOCK
  5
7A
330
79
100
AcDbEntity
 67
     1
  8
0
100
AcDbBlockBegin
  2
*Paper_Space0
 70
     0
 10
0.0
 20
0.0
 30
0.0
  3
*Paper_Space0
  1

  0
ENDBLK
  5
7B
330
79
100
AcDbEntity
 67
     1
  8
0
100
AcDbBlockEnd
  0
ENDSEC
  0
SECTION
  2
ENTITIES
  0
ELLIPSE
  5
D1
330
75
100
AcDbEntity
  8
Visible (ISO)
100
AcDbEllipse
 10
151.3254668630617
 20
214.7704256602022
 30
0.0
 11
0.7666102503989764
 21
3.92585133747869
 31
0.0
210
0.0
220
0.0
230
1.0
 40
0.4500000000000001
 41
0.0000000000000032
 42
6.283185307179585
  0
CIRCLE
  5
D2
330
75
100
AcDbEntity
  8
Visible (ISO)
100
AcDbCircle
 10
152.5272291899054
 20
198.4882799997009
 30
0.0
 40
10.925
  0
CIRCLE
  5
D3
330
75
100
AcDbEntity
  8
Visible (ISO)
100
AcDbCircle
 10
149.07748306311
 20
180.8219489810469
 30
0.0
 40
2.425
  0
CIRCLE
  5
D4
330
75
100
AcDbEntity
  8
Visible (ISO)
100
AcDbCircle
 10
155.9769753167008
 20
216.1546110183551
 30
0.0
 40
2.425
  0
LINE
  5
D5
330
75
100
AcDbEntity
  8
Visible (ISO)
100
AcDbLine
 10
143.0603682017427
 20
178.5691831820537
 30
0.0
 11
137.6834516719799
 21
192.9308733204728
 31
0.0
  0
ARC
  5
D6
330
75
100
AcDbEntity
  8
Visible (ISO)
100
AcDbCircle
 10
152.5272291899054
 20
198.4882799997009
 30
0.0
 40
15.85
100
AcDbArc
 50
137.3759674952218
 51
200.5255493212027
  0
LINE
  5
D7
330
75
100
AcDbEntity
  8
Visible (ISO)
100
AcDbLine
 10
140.8645914086094
 20
209.2216569139013
 30
0.0
 11
151.2493760898979
 21
220.5055224804205
 31
0.0
  0
ARC
  5
D8
330
75
100
AcDbEntity
  8
Visible (ISO)
100
AcDbCircle
 10
155.9769753167008
 20
216.1546110183551
 30
0.0
 40
6.424999999999998
100
AcDbArc
 50
20.5255493212027
 51
137.375967495222
  0
LINE
  5
D9
330
75
100
AcDbEntity
  8
Visible (ISO)
100
AcDbLine
 10
161.994090178068
 20
218.4073768173482
 30
0.0
 11
167.3710067078309
 21
204.0456866789291
 31
0.0
  0
ARC
  5
DA
330
75
100
AcDbEntity
  8
Visible (ISO)
100
AcDbCircle
 10
152.5272291899054
 20
198.4882799997009
 30
0.0
 40
15.85
100
AcDbArc
 50
317.3759674952219
 51
20.5255493212027
  0
LINE
  5
DB
330
75
100
AcDbEntity
  8
Visible (ISO)
100
AcDbLine
 10
164.1898669712013
 20
187.7549030855006
 30
0.0
 11
153.8050822899129
 21
176.4710375189814
 31
0.0
  0
ARC
  5
DC
330
75
100
AcDbEntity
  8
Visible (ISO)
100
AcDbCircle
 10
149.07748306311
 20
180.8219489810469
 30
0.0
 40
6.425
100
AcDbArc
 50
200.5255493212027
 51
317.3759674952218
  0
ELLIPSE
  5
DD
330
75
100
AcDbEntity
  8
Visible (ISO)
100
AcDbEllipse
 10
155.5547799379061
 20
264.2057790014119
 30
0.0
 11
0.8025876265646038
 21
3.918654501443711
 31
0.0
210
0.0
220
0.0
230
0.9999999999999998
 40
0.4499999999999995
 41
0.000000000000011
 42
6.283185307179585
  0
CIRCLE
  5
DE
330
75
100
AcDbEntity
  8
Visible (ISO)
100
AcDbCircle
 10
156.256012660738
 20
246.1988838590387
 30
0.0
 40
10.92499999999988
  0
CIRCLE
  5
DF
330
75
100
AcDbEntity
  8
Visible (ISO)
100
AcDbCircle
 10
156.256012660738
 20
246.1988838590387
 30
0.0
 40
9.849999999999891
  0
CIRCLE
  5
E0
330
75
100
AcDbEntity
  8
Visible (ISO)
100
AcDbCircle
 10
152.6443683411972
 20
228.564938602542
 30
0.0
 40
2.424999999999974
  0
CIRCLE
  5
E1
330
75
100
AcDbEntity
  8
Visible (ISO)
100
AcDbCircle
 10
159.8676569802787
 20
263.8328291155354
 30
0.0
 40
2.424999999999974
  0
LINE
  5
E2
330
75
100
AcDbEntity
  8
Visible (ISO)
100
AcDbLine
 10
146.6068432526479
 20
226.3674591816746
 30
0.0
 11
141.3618846212816
 21
240.7778645873268
 31
0.0
  0
ARC
  5
E3
330
75
100
AcDbEntity
  8
Visible (ISO)
100
AcDbCircle
 10
156.2560126607379
 20
246.1988838590387
 30
0.0
 40
15.84999999999983
100
AcDbArc
 50
136.8504181740196
 51
200.0000000000005
  0
LINE
  5
E4
330
75
100
AcDbEntity
  8
Visible (ISO)
100
AcDbLine
 10
144.6923167276395
 20
257.0387840600016
 30
0.0
 11
155.1801650957261
 21
268.2269211528343
 31
0.0
  0
ARC
  5
E5
330
75
100
AcDbEntity
  8
Visible (ISO)
100
AcDbCircle
 10
159.8676569802787
 20
263.8328291155354
 30
0.0
 40
6.424999999999928
100
AcDbArc
 50
20.00000000000018
 51
136.8504181740191
  0
LINE
  5
E6
330
75
100
AcDbEntity
  8
Visible (ISO)
100
AcDbLine
 10
165.905182068828
 20
266.0303085364029
 30
0.0
 11
171.1501407001944
 21
251.6199031307506
 31
0.0
  0
ARC
  5
E7
330
75
100
AcDbEntity
  8
Visible (ISO)
100
AcDbCircle
 10
156.256012660738
 20
246.1988838590387
 30
0.0
 40
15.84999999999983
100
AcDbArc
 50
316.8504181740195
 51
20.00000000000041
  0
LINE
  5
E8
330
75
100
AcDbEntity
  8
Visible (ISO)
100
AcDbLine
 10
167.8197085938364
 20
235.3589836580758
 30
0.0
 11
157.3318602257498
 21
224.1708465652431
 31
0.0
  0
ARC
  5
E9
330
75
100
AcDbEntity
  8
Visible (ISO)
100
AcDbCircle
 10
152.6443683411972
 20
228.564938602542
 30
0.0
 40
6.42499999999993
100
AcDbArc
 50
200.0000000000004
 51
316.8504181740193
  0
CIRCLE
  5
EA
330
75
100
AcDbEntity
  8
Visible (ISO)
100
AcDbCircle
 10
198.2459127703427
 20
171.482829115536
 30
0.0
 40
1.424999999999992
  0
CIRCLE
  5
EB
330
75
100
AcDbEntity
  8
Visible (ISO)
100
AcDbCircle
 10
170.966112551133
 20
171.482829115536
 30
0.0
 40
1.424999999999992
  0
CIRCLE
  5
EC
330
75
100
AcDbEntity
  8
Visible (ISO)
100
AcDbCircle
 10
184.6060126607378
 20
195.1078291155359
 30
0.0
 40
1.424999999999992
  0
ARC
  5
ED
330
75
100
AcDbEntity
  8
Visible (ISO)
100
AcDbCircle
 10
174.1060126607379
 20
247.2972627035065
 30
0.0
 40
1.999999999999984
100
AcDbArc
 50
139.8535388083623
 51
180.0
  0
CIRCLE
  5
EE
330
75
100
AcDbEntity
  8
Visible (ISO)
100
AcDbCircle
 10
168.606012660738
 20
183.457829115536
 30
0.0
 40
2.424999999999987
  0
CIRCLE
  5
EF
330
75
100
AcDbEntity
  8
Visible (ISO)
100
AcDbCircle
 10
200.6060126607378
 20
183.457829115536
 30
0.0
 40
2.424999999999987
  0
CIRCLE
  5
F0
330
75
100
AcDbEntity
  8
Visible (ISO)
100
AcDbCircle
 10
184.6060126607378
 20
179.357829115536
 30
0.0
 40
1.599999999999992
  0
ARC
  5
F1
330
75
100
AcDbEntity
  8
Visible (ISO)
100
AcDbCircle
 10
184.6060126607378
 20
179.357829115536
 30
0.0
 40
21.49999999999987
100
AcDbArc
 50
125.5487440028721
 51
41.9107659493317
  0
LINE
  5
F2
330
75
100
AcDbEntity
  8
Visible (ISO)
100
AcDbLine
 10
172.1060126607379
 20
247.2972627035065
 30
0.0
 11
172.1060126607379
 21
196.8506848000718
 31
0.0
  0
LINE
  5
F3
330
75
100
AcDbEntity
  8
Visible (ISO)
100
AcDbLine
 10
200.6060126607378
 20
206.8578291155359
 30
0.0
 11
200.6060126607378
 21
193.719235731881
 31
0.0
  0
LINE
  5
F4
330
75
100
AcDbEntity
  8
Visible (ISO)
100
AcDbLine
 10
190.8560126607378
 20
206.8578291155359
 30
0.0
 11
200.6060126607378
 21
206.8578291155359
 31
0.0
  0
ARC
  5
F5
330
75
100
AcDbEntity
  8
Visible (ISO)
100
AcDbCircle
 10
190.8560126607378
 20
209.3578291155359
 30
0.0
 40
2.499999999999986
100
AcDbArc
 50
90.0
 51
270.0
  0
LINE
  5
F6
330
75
100
AcDbEntity
  8
Visible (ISO)
100
AcDbLine
 10
198.6060126607377
 20
211.8578291155358
 30
0.0
 11
190.8560126607378
 21
211.8578291155358
 31
0.0
  0
LINE
  5
F7
330
75
100
AcDbEntity
  8
Visible (ISO)
100
AcDbLine
 10
200.6060126607378
 20
217.3578291155358
 30
0.0
 11
200.6060126607378
 21
213.8578291155358
 31
0.0
  0
LINE
  5
F8
330
75
100
AcDbEntity
  8
Visible (ISO)
100
AcDbLine
 10
190.8560126607378
 20
219.3578291155358
 30
0.0
 11
198.6060126607377
 21
219.3578291155358
 31
0.0
  0
ARC
  5
F9
330
75
100
AcDbEntity
  8
Visible (ISO)
100
AcDbCircle
 10
190.8560126607378
 20
221.8578291155358
 30
0.0
 40
2.499999999999986
100
AcDbArc
 50
90.0
 51
270.0
  0
LINE
  5
FA
330
75
100
AcDbEntity
  8
Visible (ISO)
100
AcDbLine
 10
198.6060126607377
 20
224.3578291155358
 30
0.0
 11
190.8560126607378
 21
224.3578291155358
 31
0.0
  0
LINE
  5
FB
330
75
100
AcDbEntity
  8
Visible (ISO)
100
AcDbLine
 10
200.6060126607378
 20
240.7578291155357
 30
0.0
 11
200.6060126607378
 21
226.3578291155358
 31
0.0
  0
LINE
  5
FC
330
75
100
AcDbEntity
  8
Visible (ISO)
100
AcDbLine
 10
190.8560126607378
 20
242.7578291155357
 30
0.0
 11
198.6060126607377
 21
242.7578291155357
 31
0.0
  0
ARC
  5
FD
330
75
100
AcDbEntity
  8
Visible (ISO)
100
AcDbCircle
 10
190.8560126607378
 20
245.2578291155357
 30
0.0
 40
2.499999999999986
100
AcDbArc
 50
90.0
 51
270.0
  0
LINE
  5
FE
330
75
100
AcDbEntity
  8
Visible (ISO)
100
AcDbLine
 10
198.6060126607377
 20
247.7578291155356
 30
0.0
 11
190.8560126607378
 21
247.7578291155356
 31
0.0
  0
LINE
  5
FF
330
75
100
AcDbEntity
  8
Visible (ISO)
100
AcDbLine
 10
200.6060126607378
 20
253.2578291155356
 30
0.0
 11
200.6060126607378
 21
249.7578291155357
 31
0.0
  0
LINE
  5
100
330
75
100
AcDbEntity
  8
Visible (ISO)
100
AcDbLine
 10
190.8560126607378
 20
255.2578291155356
 30
0.0
 11
198.6060126607377
 21
255.2578291155356
 31
0.0
  0
ARC
  5
101
330
75
100
AcDbEntity
  8
Visible (ISO)
100
AcDbCircle
 10
190.8560126607378
 20
257.7578291155356
 30
0.0
 40
2.499999999999986
100
AcDbArc
 50
90.0
 51
270.0
  0
LINE
  5
102
330
75
100
AcDbEntity
  8
Visible (ISO)
100
AcDbLine
 10
198.6060126607377
 20
260.2578291155356
 30
0.0
 11
190.8560126607378
 21
260.2578291155356
 31
0.0
  0
LINE
  5
103
330
75
100
AcDbEntity
  8
Visible (ISO)
100
AcDbLine
 10
200.6060126607378
 20
268.2578291155355
 30
0.0
 11
200.6060126607378
 21
262.2578291155356
 31
0.0
  0
LINE
  5
104
330
75
100
AcDbEntity
  8
Visible (ISO)
100
AcDbLine
 10
191.7855177651089
 20
270.2578291155356
 30
0.0
 11
198.6060126607377
 21
270.2578291155356
 31
0.0
  0
LINE
  5
105
330
75
100
AcDbEntity
  8
Visible (ISO)
100
AcDbLine
 10
172.577215002461
 20
248.586750090047
 30
0.0
 11
190.256720106832
 21
269.5473165020761
 31
0.0
  0
ARC
  5
106
330
75
100
AcDbEntity
  8
Visible (ISO)
100
AcDbCircle
 10
198.6060126607377
 20
213.8578291155358
 30
0.0
 40
1.999999999999996
100
AcDbArc
 50
270.0
 51
0.0
  0
ARC
  5
107
330
75
100
AcDbEntity
  8
Visible (ISO)
100
AcDbCircle
 10
198.6060126607378
 20
217.3578291155358
 30
0.0
 40
1.999999999999986
100
AcDbArc
 50
0.0
 51
90.0
  0
ARC
  5
108
330
75
100
AcDbEntity
  8
Visible (ISO)
100
AcDbCircle
 10
198.6060126607378
 20
226.3578291155358
 30
0.0
 40
1.999999999999984
100
AcDbArc
 50
269.999999999999
 51
0.0
  0
ARC
  5
109
330
75
100
AcDbEntity
  8
Visible (ISO)
100
AcDbCircle
 10
198.6060126607378
 20
240.7578291155357
 30
0.0
 40
1.999999999999982
100
AcDbArc
 50
0.0
 51
90.0
  0
ARC
  5
10A
330
75
100
AcDbEntity
  8
Visible (ISO)
100
AcDbCircle
 10
198.6060126607378
 20
249.7578291155356
 30
0.0
 40
1.999999999999978
100
AcDbArc
 50
270.0
 51
0.0
  0
ARC
  5
10B
330
75
100
AcDbEntity
  8
Visible (ISO)
100
AcDbCircle
 10
198.6060126607377
 20
253.2578291155356
 30
0.0
 40
2.0
100
AcDbArc
 50
0.0
 51
90.0
  0
ARC
  5
10C
330
75
100
AcDbEntity
  8
Visible (ISO)
100
AcDbCircle
 10
198.6060126607378
 20
262.2578291155356
 30
0.0
 40
1.999999999999982
100
AcDbArc
 50
270.0
 51
0.0
  0
ARC
  5
10D
330
75
100
AcDbEntity
  8
Visible (ISO)
100
AcDbCircle
 10
198.6060126607378
 20
268.2578291155355
 30
0.0
 40
1.999999999999982
100
AcDbArc
 50
0.0
 51
90.0
  0
ARC
  5
10E
330
75
100
AcDbEntity
  8
Visible (ISO)
100
AcDbCircle
 10
191.7855177651089
 20
268.2578291155356
 30
0.0
 40
1.999999999999911
100
AcDbArc
 50
89.99999999999898
 51
139.8535388083632
  0
CIRCLE
  5
10F
330
75
100
AcDbEntity
  8
Visible (ISO)
100
AcDbCircle
 10
127.0158826232975
 20
171.314799129849
 30
0.0
 40
1.425
  0
CIRCLE
  5
110
330
75
100
AcDbEntity
  8
Visible (ISO)
100
AcDbCircle
 10
102.2966535882484
 20
182.8537425785701
 30
0.0
 40
1.425
  0
CIRCLE
  5
111
330
75
100
AcDbEntity
  8
Visible (ISO)
100
AcDbCircle
 10
124.6492862651975
 20
198.491751160528
 30
0.0
 40
1.425
  0
CIRCLE
  5
112
330
75
100
AcDbEntity
  8
Visible (ISO)
100
AcDbCircle
 10
134.2196999517075
 20
181.1674998962146
 30
0.0
 40
2.425
  0
CIRCLE
  5
113
330
75
100
AcDbEntity
  8
Visible (ISO)
100
AcDbCircle
 10
105.223324510345
 20
194.7030165565992
 30
0.0
 40
2.425
  0
CIRCLE
  5
114
330
75
100
AcDbEntity
  8
Visible (ISO)
100
AcDbCircle
 10
117.9872741589145
 20
184.2200976229824
 30
0.0
 40
5.2
  0
CIRCLE
  5
115
330
75
100
AcDbEntity
  8
Visible (ISO)
100
AcDbCircle
 10
117.9872741589145
 20
184.2200976229824
 30
0.0
 40
21.5
  0
CIRCLE
  5
116
330
75
100
AcDbEntity
  8
Visible (ISO)
100
AcDbCircle
 10
70.11135613896017
 20
200.9578291155356
 30
0.0
 40
1.5
  0
CIRCLE
  5
117
330
75
100
AcDbEntity
  8
Visible (ISO)
100
AcDbCircle
 10
70.11135613896017
 20
205.9578291155355
 30
0.0
 40
1.5
  0
ARC
  5
118
330
75
100
AcDbEntity
  8
Visible (ISO)
100
AcDbCircle
 10
75.61135613896016
 20
199.9578291155355
 30
0.0
 40
2.000000000000008
100
AcDbArc
 50
270.0000000000005
 51
0.0
  0
ARC
  5
119
330
75
100
AcDbEntity
  8
Visible (ISO)
100
AcDbCircle
 10
60.61135613896016
 20
208.4642404259176
 30
0.0
 40
1.999999999999998
100
AcDbArc
 50
0.0
 51
91.46928358135379
  0
ARC
  5
11A
330
75
100
AcDbEntity
  8
Visible (ISO)
100
AcDbCircle
 10
64.61135613896016
 20
199.9578291155355
 30
0.0
 40
1.999999999999988
100
AcDbArc
 50
180.0
 51
270.0000000000002
  0
LINE
  5
11B
330
75
100
AcDbEntity
  8
Visible (ISO)
100
AcDbLine
 10
75.61135613896019
 20
197.9578291155355
 30
0.0
 11
64.61135613896018
 21
197.9578291155355
 31
0.0
  0
LINE
  5
11C
330
75
100
AcDbEntity
  8
Visible (ISO)
100
AcDbLine
 10
77.61135613896016
 20
220.5264490393946
 30
0.0
 11
77.61135613896016
 21
199.9578291155355
 31
0.0
  0
LINE
  5
11D
330
75
100
AcDbEntity
  8
Visible (ISO)
100
AcDbLine
 10
62.61135613896017
 20
199.9578291155355
 30
0.0
 11
62.61135613896017
 21
208.4642404259176
 31
0.0
  0
LINE
  5
11E
330
75
100
AcDbEntity
  8
Visible (ISO)
100
AcDbLine
 10
77.61135613896016
 20
220.5264490393946
 30
0.0
 11
79.09455941660031
 21
221.9579097259299
 31
0.0
  0
ARC
  5
11F
330
75
100
AcDbEntity
  8
Visible (ISO)
100
AcDbCircle
 10
79.11135613896016
 20
223.7078291155356
 30
0.0
 40
1.749999999999999
100
AcDbArc
 50
89.99999999999912
 51
269.4500593840599
  0
LINE
  5
120
330
75
100
AcDbEntity
  8
Visible (ISO)
100
AcDbLine
 10
79.11135613896014
 20
225.4578291155356
 30
0.0
 11
82.44148315788237
 21
225.4578291155356
 31
0.0
  0
ARC
  5
121
330
75
100
AcDbEntity
  8
Visible (ISO)
100
AcDbCircle
 10
78.11135613896016
 20
227.9578291155356
 30
0.0
 40
4.999999999999991
100
AcDbArc
 50
330.0
 51
31.00271913387396
  0
LINE
  5
122
330
75
100
AcDbEntity
  8
Visible (ISO)
100
AcDbLine
 10
87.11135613896017
 20
251.5328291155356
 30
0.0
 11
87.11135613896017
 21
241.1467204791315
 31
0.0
  0
LINE
  5
123
330
75
100
AcDbEntity
  8
Visible (ISO)
100
AcDbLine
 10
87.11135613896017
 20
261.5328291155356
 30
0.0
 11
87.11135613896017
 21
254.3828291155356
 31
0.0
  0
LINE
  5
124
330
75
100
AcDbEntity
  8
Visible (ISO)
100
AcDbLine
 10
87.11135613896017
 20
268.2578291155356
 30
0.0
 11
87.11135613896017
 21
264.3828291155356
 31
0.0
  0
LINE
  5
125
330
75
100
AcDbEntity
  8
Visible (ISO)
100
AcDbLine
 10
85.11135613896014
 20
270.2578291155356
 30
0.0
 11
40.71135613896017
 21
270.2578291155356
 31
0.0
  0
ARC
  5
126
330
75
100
AcDbEntity
  8
Visible (ISO)
100
AcDbCircle
 10
40.71135613896013
 20
266.7578291155355
 30
0.0
 40
3.5
100
AcDbArc
 50
90.0
 51
180.0
  0
LINE
  5
127
330
75
100
AcDbEntity
  8
Visible (ISO)
100
AcDbLine
 10
37.21135613896015
 20
266.7578291155355
 30
0.0
 11
37.21135613896019
 21
228.9528165526422
 31
0.0
  0
ARC
  5
128
330
75
100
AcDbEntity
  8
Visible (ISO)
100
AcDbCircle
 10
42.11135613896018
 20
227.9578291155356
 30
0.0
 40
5.000000000000009
100
AcDbArc
 50
168.5216590454661
 51
226.0170368696415
  0
LINE
  5
129
330
75
100
AcDbEntity
  8
Visible (ISO)
100
AcDbLine
 10
38.63913391673794
 20
224.360097491372
 30
0.0
 11
47.95857836118241
 21
215.3657684309633
 31
0.0
  0
ARC
  5
12A
330
75
100
AcDbEntity
  8
Visible (ISO)
100
AcDbCircle
 10
60.11135613896016
 20
227.9578291155356
 30
0.0
 40
17.50000000000001
100
AcDbArc
 50
226.0170368696415
 51
271.4692835813538
  0
CIRCLE
  5
12B
330
75
100
AcDbEntity
  8
Visible (ISO)
100
AcDbCircle
 10
60.11135613896015
 20
257.9578291155355
 30
0.0
 40
3.75
  0
CIRCLE
  5
12C
330
75
100
AcDbEntity
  8
Visible (ISO)
100
AcDbCircle
 10
42.11135613896016
 20
227.9578291155356
 30
0.0
 40
2.424999999999999
  0
CIRCLE
  5
12D
330
75
100
AcDbEntity
  8
Visible (ISO)
100
AcDbCircle
 10
78.11135613896016
 20
227.9578291155356
 30
0.0
 40
2.424999999999999
  0
CIRCLE
  5
12E
330
75
100
AcDbEntity
  8
Visible (ISO)
100
AcDbCircle
 10
49.11135613896014
 20
257.9578291155355
 30
0.0
 40
2.25
  0
CIRCLE
  5
12F
330
75
100
AcDbEntity
  8
Visible (ISO)
100
AcDbCircle
 10
40.71135613896013
 20
266.7578291155355
 30
0.0
 40
1.425
  0
CIRCLE
  5
130
330
75
100
AcDbEntity
  8
Visible (ISO)
100
AcDbCircle
 10
40.71135613896014
 20
249.1578291155355
 30
0.0
 40
1.425
  0
LINE
  5
131
330
75
100
AcDbEntity
  8
Visible (ISO)
100
AcDbLine
 10
72.11135613896018
 20
266.7578291155355
 30
0.0
 11
72.11135613896018
 21
266.9578291155356
 31
0.0
  0
ARC
  5
132
330
75
100
AcDbEntity
  8
Visible (ISO)
100
AcDbCircle
 10
68.61135613896263
 20
266.7578291155356
 30
0.0
 40
3.499999999997521
100
AcDbArc
 50
0.0
 51
3.275828959799396
  0
ARC
  5
133
330
75
100
AcDbEntity
  8
Visible (ISO)
100
AcDbCircle
 10
84.11135613896021
 20
231.5633803909995
 30
0.0
 40
2.000000000000063
100
AcDbArc
 50
180.0
 51
211.0027191338735
  0
ARC
  5
134
330
75
100
AcDbEntity
  8
Visible (ISO)
100
AcDbCircle
 10
84.11135613896016
 20
237.1467204791315
 30
0.0
 40
2.000000000000005
100
AcDbArc
 50
90.0
 51
180.0
  0
ARC
  5
135
330
75
100
AcDbEntity
  8
Visible (ISO)
100
AcDbCircle
 10
85.11135613896014
 20
241.1467204791315
 30
0.0
 40
2.000000000000006
100
AcDbArc
 50
270.0000000000005
 51
0.0
  0
ARC
  5
136
330
75
100
AcDbEntity
  8
Visible (ISO)
100
AcDbCircle
 10
85.11135613896014
 20
268.2578291155356
 30
0.0
 40
2.00000000000001
100
AcDbArc
 50
0.0
 51
89.99999999999948
  0
LINE
  5
137
330
75
100
AcDbEntity
  8
Visible (ISO)
100
AcDbLine
 10
82.11135613896017
 20
237.1467204791315
 30
0.0
 11
82.11135613896017
 21
231.5633803909995
 31
0.0
  0
LINE
  5
138
330
75
100
AcDbEntity
  8
Visible (ISO)
100
AcDbLine
 10
85.11135613896019
 20
239.1467204791315
 30
0.0
 11
84.1113561389602
 21
239.1467204791315
 31
0.0
  0
LINE
  5
139
330
75
100
AcDbEntity
  8
Visible (ISO)
100
AcDbLine
 10
72.11135613896018
 20
266.9578291155356
 30
0.0
 11
72.10563718089139
 21
266.9578291155356
 31
0.0
  0
LINE
  5
13A
330
75
100
AcDbEntity
  8
Visible (ISO)
100
AcDbLine
 10
87.11135613896017
 20
251.5328291155356
 30
0.0
 11
83.61135613896015
 21
251.5328291155356
 31
0.0
  0
LINE
  5
13B
330
75
100
AcDbEntity
  8
Visible (ISO)
100
AcDbLine
 10
83.61135613896015
 20
251.5328291155356
 30
0.0
 11
83.61135613896015
 21
251.0078291155356
 31
0.0
  0
LINE
  5
13C
330
75
100
AcDbEntity
  8
Visible (ISO)
100
AcDbLine
 10
83.01135613896017
 20
250.4078291155356
 30
0.0
 11
81.71135613896014
 21
250.4078291155356
 31
0.0
  0
LINE
  5
13D
330
75
100
AcDbEntity
  8
Visible (ISO)
100
AcDbLine
 10
81.11135613896015
 20
251.0078291155356
 30
0.0
 11
81.11135613896015
 21
251.5328291155356
 31
0.0
  0
LINE
  5
13E
330
75
100
AcDbEntity
  8
Visible (ISO)
100
AcDbLine
 10
81.11135613896015
 20
251.5328291155356
 30
0.0
 11
79.71135613896016
 21
251.5328291155356
 31
0.0
  0
LINE
  5
13F
330
75
100
AcDbEntity
  8
Visible (ISO)
100
AcDbLine
 10
79.11135613896016
 20
252.1328291155356
 30
0.0
 11
79.11135613896016
 21
253.7828291155356
 31
0.0
  0
LINE
  5
140
330
75
100
AcDbEntity
  8
Visible (ISO)
100
AcDbLine
 10
79.71135613896016
 20
254.3828291155356
 30
0.0
 11
81.11135613896015
 21
254.3828291155356
 31
0.0
  0
LINE
  5
141
330
75
100
AcDbEntity
  8
Visible (ISO)
100
AcDbLine
 10
81.11135613896015
 20
254.3828291155356
 30
0.0
 11
81.11135613896015
 21
254.9078291155356
 31
0.0
  0
LINE
  5
142
330
75
100
AcDbEntity
  8
Visible (ISO)
100
AcDbLine
 10
81.71135613896014
 20
255.5078291155355
 30
0.0
 11
83.01135613896017
 21
255.5078291155355
 31
0.0
  0
LINE
  5
143
330
75
100
AcDbEntity
  8
Visible (ISO)
100
AcDbLine
 10
83.61135613896015
 20
254.9078291155356
 30
0.0
 11
83.61135613896015
 21
254.3828291155356
 31
0.0
  0
LINE
  5
144
330
75
100
AcDbEntity
  8
Visible (ISO)
100
AcDbLine
 10
83.61135613896015
 20
254.3828291155356
 30
0.0
 11
87.11135613896017
 21
254.3828291155356
 31
0.0
  0
LINE
  5
145
330
75
100
AcDbEntity
  8
Visible (ISO)
100
AcDbLine
 10
87.11135613896017
 20
261.5328291155356
 30
0.0
 11
83.61135613896015
 21
261.5328291155356
 31
0.0
  0
LINE
  5
146
330
75
100
AcDbEntity
  8
Visible (ISO)
100
AcDbLine
 10
83.61135613896015
 20
261.5328291155356
 30
0.0
 11
83.61135613896015
 21
261.0078291155356
 31
0.0
  0
LINE
  5
147
330
75
100
AcDbEntity
  8
Visible (ISO)
100
AcDbLine
 10
83.01135613896017
 20
260.4078291155356
 30
0.0
 11
81.71135613896014
 21
260.4078291155356
 31
0.0
  0
LINE
  5
148
330
75
100
AcDbEntity
  8
Visible (ISO)
100
AcDbLine
 10
81.11135613896015
 20
261.0078291155356
 30
0.0
 11
81.11135613896015
 21
261.5328291155356
 31
0.0
  0
LINE
  5
149
330
75
100
AcDbEntity
  8
Visible (ISO)
100
AcDbLine
 10
81.11135613896015
 20
261.5328291155356
 30
0.0
 11
79.71135613896016
 21
261.5328291155356
 31
0.0
  0
LINE
  5
14A
330
75
100
AcDbEntity
  8
Visible (ISO)
100
AcDbLine
 10
79.11135613896016
 20
262.1328291155356
 30
0.0
 11
79.11135613896016
 21
263.7828291155356
 31
0.0
  0
LINE
  5
14B
330
75
100
AcDbEntity
  8
Visible (ISO)
100
AcDbLine
 10
79.71135613896016
 20
264.3828291155355
 30
0.0
 11
81.11135613896015
 21
264.3828291155356
 31
0.0
  0
LINE
  5
14C
330
75
100
AcDbEntity
  8
Visible (ISO)
100
AcDbLine
 10
81.11135613896015
 20
264.3828291155356
 30
0.0
 11
81.11135613896015
 21
264.9078291155356
 31
0.0
  0
LINE
  5
14D
330
75
100
AcDbEntity
  8
Visible (ISO)
100
AcDbLine
 10
81.71135613896014
 20
265.5078291155355
 30
0.0
 11
83.01135613896017
 21
265.5078291155355
 31
0.0
  0
LINE
  5
14E
330
75
100
AcDbEntity
  8
Visible (ISO)
100
AcDbLine
 10
83.61135613896015
 20
264.9078291155356
 30
0.0
 11
83.61135613896015
 21
264.3828291155356
 31
0.0
  0
LINE
  5
14F
330
75
100
AcDbEntity
  8
Visible (ISO)
100
AcDbLine
 10
83.61135613896015
 20
264.3828291155356
 30
0.0
 11
87.11135613896017
 21
264.3828291155356
 31
0.0
  0
ARC
  5
150
330
75
100
AcDbEntity
  8
Visible (ISO)
100
AcDbCircle
 10
83.01135613896017
 20
251.0078291155355
 30
0.0
 40
0.5999999999999739
100
AcDbArc
 50
269.9999999999983
 51
0.0
  0
ARC
  5
151
330
75
100
AcDbEntity
  8
Visible (ISO)
100
AcDbCircle
 10
81.71135613896012
 20
251.0078291155355
 30
0.0
 40
0.5999999999999739
100
AcDbArc
 50
180.0
 51
270.0000000000017
  0
ARC
  5
152
330
75
100
AcDbEntity
  8
Visible (ISO)
100
AcDbCircle
 10
79.71135613896013
 20
252.1328291155356
 30
0.0
 40
0.5999999999999961
100
AcDbArc
 50
180.0
 51
270.0000000000008
  0
ARC
  5
153
330
75
100
AcDbEntity
  8
Visible (ISO)
100
AcDbCircle
 10
79.71135613896016
 20
253.7828291155356
 30
0.0
 40
0.600000000000005
100
AcDbArc
 50
90.00000000000087
 51
180.0
  0
ARC
  5
154
330
75
100
AcDbEntity
  8
Visible (ISO)
100
AcDbCircle
 10
81.71135613896012
 20
254.9078291155356
 30
0.0
 40
0.5999999999999872
100
AcDbArc
 50
90.0
 51
180.0
  0
ARC
  5
155
330
75
100
AcDbEntity
  8
Visible (ISO)
100
AcDbCircle
 10
83.01135613896017
 20
254.9078291155356
 30
0.0
 40
0.5999999999999784
100
AcDbArc
 50
0.0
 51
90.0000000000017
  0
ARC
  5
156
330
75
100
AcDbEntity
  8
Visible (ISO)
100
AcDbCircle
 10
83.01135613896017
 20
261.0078291155356
 30
0.0
 40
0.5999999999999739
100
AcDbArc
 50
269.9999999999983
 51
0.0
  0
ARC
  5
157
330
75
100
AcDbEntity
  8
Visible (ISO)
100
AcDbCircle
 10
81.71135613896012
 20
261.0078291155356
 30
0.0
 40
0.5999999999999872
100
AcDbArc
 50
180.0
 51
270.0000000000017
  0
ARC
  5
158
330
75
100
AcDbEntity
  8
Visible (ISO)
100
AcDbCircle
 10
79.71135613896013
 20
262.1328291155356
 30
0.0
 40
0.5999999999999961
100
AcDbArc
 50
180.0
 51
270.0000000000008
  0
ARC
  5
159
330
75
100
AcDbEntity
  8
Visible (ISO)
100
AcDbCircle
 10
79.71135613896014
 20
263.7828291155356
 30
0.0
 40
0.5999999999999961
100
AcDbArc
 50
90.0
 51
180.0
  0
ARC
  5
15A
330
75
100
AcDbEntity
  8
Visible (ISO)
100
AcDbCircle
 10
81.71135613896012
 20
264.9078291155356
 30
0.0
 40
0.5999999999999917
100
AcDbArc
 50
90.0
 51
180.0
  0
ARC
  5
15B
330
75
100
AcDbEntity
  8
Visible (ISO)
100
AcDbCircle
 10
83.01135613896015
 20
264.9078291155356
 30
0.0
 40
0.5999999999999917
100
AcDbArc
 50
0.0
 51
90.0000000000017
  0
CIRCLE
  5
15C
330
75
100
AcDbEntity
  8
Visible (ISO)
100
AcDbCircle
 10
60.11135613896016
 20
227.9578291155356
 30
0.0
 40
10.925
  0
CIRCLE
  5
15D
330
75
100
AcDbEntity
  8
Visible (ISO)
100
AcDbCircle
 10
60.11135613896016
 20
227.9578291155356
 30
0.0
 40
9.849999999999999
  0
ARC
  5
15E
330
75
100
AcDbEntity
  8
Visible (ISO)
100
AcDbCircle
 10
79.61135613896018
 20
219.6771484592638
 30
0.0
 40
1.999999999999984
100
AcDbArc
 50
90.0
 51
180.0
  0
ARC
  5
15F
330
75
100
AcDbEntity
  8
Visible (ISO)
100
AcDbCircle
 10
91.61135613896007
 20
198.371711105802
 30
0.0
 40
1.999999999999983
100
AcDbArc
 50
180.0
 51
267.5080936310203
  0
ARC
  5
160
330
75
100
AcDbEntity
  8
Visible (ISO)
100
AcDbCircle
 10
87.6113561389601
 20
219.6771484592638
 30
0.0
 40
1.999999999999986
100
AcDbArc
 50
0.0
 51
90.0
  0
LINE
  5
161
330
75
100
AcDbEntity
  8
Visible (ISO)
100
AcDbLine
 10
79.61135613896022
 20
221.6771484592638
 30
0.0
 11
87.61135613896014
 21
221.6771484592638
 31
0.0
  0
CIRCLE
  5
162
330
75
100
AcDbEntity
  8
Visible (ISO)
100
AcDbCircle
 10
86.36135613896014
 20
218.6771484592638
 30
0.0
 40
1.624999999999987
  0
CIRCLE
  5
163
330
75
100
AcDbEntity
  8
Visible (ISO)
100
AcDbCircle
 10
86.36135613896014
 20
199.6271484592639
 30
0.0
 40
1.624999999999987
  0
CIRCLE
  5
164
330
75
100
AcDbEntity
  8
Visible (ISO)
100
AcDbCircle
 10
91.36135613896009
 20
192.6271484592639
 30
0.0
 40
1.624999999999987
  0
CIRCLE
  5
165
330
75
100
AcDbEntity
  8
Visible (ISO)
100
AcDbCircle
 10
81.36135613896017
 20
192.6271484592639
 30
0.0
 40
1.624999999999987
  0
LINE
  5
166
330
75
100
AcDbEntity
  8
Visible (ISO)
100
AcDbLine
 10
77.61135613896022
 20
192.6271484592639
 30
0.0
 11
77.61135613896019
 21
219.6771484592638
 31
0.0
  0
ARC
  5
167
330
75
100
AcDbEntity
  8
Visible (ISO)
100
AcDbCircle
 10
81.36135613896017
 20
192.6271484592639
 30
0.0
 40
3.749999999999975
100
AcDbArc
 50
180.0
 51
270.0
  0
LINE
  5
168
330
75
100
AcDbEntity
  8
Visible (ISO)
100
AcDbLine
 10
91.36135613896009
 20
188.877148459264
 30
0.0
 11
81.36135613896017
 21
188.877148459264
 31
0.0
  0
ARC
  5
169
330
75
100
AcDbEntity
  8
Visible (ISO)
100
AcDbCircle
 10
91.36135613896009
 20
192.6271484592639
 30
0.0
 40
3.749999999999975
100
AcDbArc
 50
270.0
 51
87.50809363102019
  0
LINE
  5
16A
330
75
100
AcDbEntity
  8
Visible (ISO)
100
AcDbLine
 10
89.61135613896013
 20
219.6771484592638
 30
0.0
 11
89.61135613896013
 21
198.371711105802
 31
0.0
  0
CIRCLE
  5
16B
330
75
100
AcDbEntity
  8
Visible (ISO)
100
AcDbCircle
 10
152.5272291899054
 20
198.4882799997009
 30
0.0
 40
1.25
  0
CIRCLE
  5
16C
330
75
100
AcDbEntity
  8
Visible (ISO)
100
AcDbCircle
 10
152.5272291899054
 20
198.4882799997009
 30
0.0
 40
8.500000000000007
  0
CIRCLE
  5
16D
330
75
100
AcDbEntity
  8
Visible (ISO)
100
AcDbCircle
 10
156.256012660738
 20
246.1988838590387
 30
0.0
 40
1.249999999999998
  0
CIRCLE
  5
16E
330
75
100
AcDbEntity
  8
Visible (ISO)
100
AcDbCircle
 10
156.256012660738
 20
246.1988838590387
 30
0.0
 40
8.499999999999994
  0
CIRCLE
  5
16F
330
75
100
AcDbEntity
  8
Visible (ISO)
100
AcDbCircle
 10
104.1113561389604
 20
241.2578291155358
 30
0.0
 40
1.424999999999996
  0
CIRCLE
  5
170
330
75
100
AcDbEntity
  8
Visible (ISO)
100
AcDbCircle
 10
120.1113561389601
 20
263.2578291155359
 30
0.0
 40
1.424999999999996
  0
CIRCLE
  5
171
330
75
100
AcDbEntity
  8
Visible (ISO)
100
AcDbCircle
 10
104.1113561389602
 20
263.2578291155358
 30
0.0
 40
1.424999999999996
  0
CIRCLE
  5
172
330
75
100
AcDbEntity
  8
Visible (ISO)
100
AcDbCircle
 10
134.924229096345
 20
229.2271337746867
 30
0.0
 40
1.424999999999996
  0
CIRCLE
  5
173
330
75
100
AcDbEntity
  8
Visible (ISO)
100
AcDbCircle
 10
106.733450472768
 20
218.9665294749164
 30
0.0
 40
1.424999999999996
  0
ARC
  5
174
330
75
100
AcDbEntity
  8
Visible (ISO)
100
AcDbCircle
 10
109.0113561389603
 20
243.7578291155359
 30
0.0
 40
0.499999999999997
100
AcDbArc
 50
180.0
 51
270.0
  0
ARC
  5
175
330
75
100
AcDbEntity
  8
Visible (ISO)
100
AcDbCircle
 10
109.0113561389602
 20
255.7578291155358
 30
0.0
 40
0.5000000000000014
100
AcDbArc
 50
90.0
 51
180.0
  0
ARC
  5
176
330
75
100
AcDbEntity
  8
Visible (ISO)
100
AcDbCircle
 10
113.2113561389602
 20
255.7578291155358
 30
0.0
 40
0.4999999999999968
100
AcDbArc
 50
0.0
 51
90.0
  0
ARC
  5
177
330
75
100
AcDbEntity
  8
Visible (ISO)
100
AcDbCircle
 10
113.2113561389603
 20
243.7578291155359
 30
0.0
 40
0.4999999999999969
100
AcDbArc
 50
270.0
 51
0.0
  0
ARC
  5
178
330
75
100
AcDbEntity
  8
Visible (ISO)
100
AcDbCircle
 10
109.4333525199612
 20
261.9842354683278
 30
0.0
 40
0.4999999999999964
100
AcDbArc
 50
19.99999999999843
 51
110.000000000001
  0
ARC
  5
179
330
75
100
AcDbEntity
  8
Visible (ISO)
100
AcDbCircle
 10
105.2047357264246
 20
260.4451448233624
 30
0.0
 40
0.4999999999999947
100
AcDbArc
 50
109.9999999999991
 51
199.9999999999984
  0
LINE
  5
17A
330
75
100
AcDbEntity
  8
Visible (ISO)
100
AcDbLine
 10
110.5113561389603
 20
243.2578291155358
 30
0.0
 11
109.0113561389603
 21
243.2578291155358
 31
0.0
  0
LINE
  5
17B
330
75
100
AcDbEntity
  8
Visible (ISO)
100
AcDbLine
 10
113.2113561389603
 20
243.2578291155359
 30
0.0
 11
110.5113561389603
 21
243.2578291155358
 31
0.0
  0
LINE
  5
17C
330
75
100
AcDbEntity
  8
Visible (ISO)
100
AcDbLine
 10
108.5113561389603
 20
243.7578291155359
 30
0.0
 11
108.5113561389603
 21
249.8983777051313
 31
0.0
  0
LINE
  5
17D
330
75
100
AcDbEntity
  8
Visible (ISO)
100
AcDbLine
 10
110.5113561389602
 20
256.2578291155358
 30
0.0
 11
113.2113561389602
 21
256.2578291155359
 31
0.0
  0
LINE
  5
17E
330
75
100
AcDbEntity
  8
Visible (ISO)
100
AcDbLine
 10
108.5113561389602
 20
255.7578291155358
 30
0.0
 11
108.5113561389603
 21
249.8983777051313
 31
0.0
  0
LINE
  5
17F
330
75
100
AcDbEntity
  8
Visible (ISO)
100
AcDbLine
 10
110.5113561389602
 20
256.2578291155358
 30
0.0
 11
109.0113561389602
 21
256.2578291155358
 31
0.0
  0
LINE
  5
180
330
75
100
AcDbEntity
  8
Visible (ISO)
100
AcDbLine
 10
113.7113561389604
 20
235.6114951239667
 30
0.0
 11
113.7113561389602
 21
251.6924193248643
 31
0.0
  0
LINE
  5
181
330
75
100
AcDbEntity
  8
Visible (ISO)
100
AcDbLine
 10
109.9031988303542
 20
262.1552455399907
 30
0.0
 11
110.5113561389601
 21
260.4843470671194
 31
0.0
  0
LINE
  5
182
330
75
100
AcDbEntity
  8
Visible (ISO)
100
AcDbLine
 10
110.5113561389601
 20
260.4843470671194
 30
0.0
 11
110.5113561389602
 21
256.2578291155358
 31
0.0
  0
LINE
  5
183
330
75
100
AcDbEntity
  8
Visible (ISO)
100
AcDbLine
 10
108.5113561389603
 20
249.8983777051313
 30
0.0
 11
104.7348894160317
 21
260.2741347516996
 31
0.0
  0
LINE
  5
184
330
75
100
AcDbEntity
  8
Visible (ISO)
100
AcDbLine
 10
113.7113561389602
 20
251.6924193248643
 30
0.0
 11
126.4911757816488
 21
216.5801534318742
 31
0.0
  0
LINE
  5
185
330
75
100
AcDbEntity
  8
Visible (ISO)
100
AcDbLine
 10
126.4911757816488
 20
216.5801534318742
 30
0.0
 11
121.3228663673263
 21
214.699042643583
 31
0.0
  0
LINE
  5
186
330
75
100
AcDbEntity
  8
Visible (ISO)
100
AcDbLine
 10
121.3228663673263
 20
214.699042643583
 30
0.0
 11
113.7113561389604
 21
235.6114951239667
 31
0.0
  0
LINE
  5
187
330
75
100
AcDbEntity
  8
Visible (ISO)
100
AcDbLine
 10
105.0337256547618
 20
260.9149911337553
 30
0.0
 11
109.2623424482984
 21
262.4540817787208
 31
0.0
  0
LINE
  5
188
330
75
100
AcDbEntity
  8
Visible (ISO)
100
AcDbLine
 10
113.7113561389604
 20
235.6114951239667
 30
0.0
 11
113.7113561389606
 21
205.5436128477895
 31
0.0
  0
LINE
  5
189
330
75
100
AcDbEntity
  8
Visible (ISO)
100
AcDbLine
 10
113.7113561389601
 20
270.2578291155358
 30
0.0
 11
113.7113561389602
 21
251.6924193248643
 31
0.0
  0
LINE
  5
18A
330
75
100
AcDbEntity
  8
Visible (ISO)
100
AcDbLine
 10
110.5113561389601
 20
260.4843470671194
 30
0.0
 11
110.5113561389601
 21
270.2578291155358
 31
0.0
  0
LINE
  5
18B
330
75
100
AcDbEntity
  8
Visible (ISO)
100
AcDbLine
 10
110.5113561389606
 20
204.3789080981376
 30
0.0
 11
110.5113561389603
 21
243.2578291155358
 31
0.0
  0
LINE
  5
18C
330
75
100
AcDbEntity
  8
Visible (ISO)
100
AcDbLine
 10
113.7113561389606
 20
205.5436128477895
 30
0.0
 11
110.5113561389606
 21
204.3789080981376
 31
0.0
  0
CIRCLE
  5
18D
330
75
100
AcDbEntity
  8
Visible (ISO)
100
AcDbCircle
 10
120.7113561389602
 20
253.6578291155359
 30
0.0
 40
1.424999999999996
  0
CIRCLE
  5
18E
330
75
100
AcDbEntity
  8
Visible (ISO)
100
AcDbCircle
 10
128.7113561389601
 20
253.657829115536
 30
0.0
 40
1.424999999999996
  0
CIRCLE
  5
18F
330
75
100
AcDbEntity
  8
Visible (ISO)
100
AcDbCircle
 10
128.7113561389602
 20
245.857829115536
 30
0.0
 40
1.424999999999996
  0
CIRCLE
  5
190
330
75
100
AcDbEntity
  8
Visible (ISO)
100
AcDbCircle
 10
120.7113561389602
 20
245.8578291155359
 30
0.0
 40
1.424999999999996
  0
LINE
  5
191
330
75
100
AcDbEntity
  8
Visible (ISO)
100
AcDbLine
 10
133.5388704375431
 20
219.1453045068166
 30
0.0
 11
126.4911757816488
 21
216.5801534318742
 31
0.0
  0
LINE
  5
192
330
75
100
AcDbEntity
  8
Visible (ISO)
100
AcDbLine
 10
136.1548068699687
 20
213.7123608680966
 30
0.0
 11
134.30789809601
 21
218.7867010203405
 31
0.0
  0
LINE
  5
193
330
75
100
AcDbEntity
  8
Visible (ISO)
100
AcDbLine
 10
149.4514574540891
 20
218.551945896155
 30
0.0
 11
136.1548068699686
 21
213.7123608680966
 31
0.0
  0
LINE
  5
194
330
75
100
AcDbEntity
  8
Visible (ISO)
100
AcDbLine
 10
142.5390202682284
 20
237.5437109777053
 30
0.0
 11
149.4514574540891
 21
218.551945896155
 31
0.0
  0
LINE
  5
195
330
75
100
AcDbEntity
  8
Visible (ISO)
100
AcDbLine
 10
137.1113561389599
 20
270.257829115536
 30
0.0
 11
137.1113561389599
 21
268.3255238770152
 31
0.0
  0
LINE
  5
196
330
75
100
AcDbEntity
  8
Visible (ISO)
100
AcDbLine
 10
113.7113561389601
 20
270.2578291155358
 30
0.0
 11
137.1113561389599
 21
270.257829115536
 31
0.0
  0
LINE
  5
197
330
75
100
AcDbEntity
  8
Visible (ISO)
100
AcDbLine
 10
143.8285046351486
 20
222.8904250762328
 30
0.0
 11
137.8144718621189
 21
220.7014961589485
 31
0.0
  0
LINE
  5
198
330
75
100
AcDbEntity
  8
Visible (ISO)
100
AcDbLine
 10
137.045444203652
 20
221.0600996454246
 30
0.0
 11
136.08778780234
 21
223.6912389836251
 31
0.0
  0
LINE
  5
199
330
75
100
AcDbEntity
  8
Visible (ISO)
100
AcDbLine
 10
136.4463912888162
 20
224.4602666420921
 30
0.0
 11
142.4604240618459
 21
226.6491955593765
 31
0.0
  0
LINE
  5
19A
330
75
100
AcDbEntity
  8
Visible (ISO)
100
AcDbLine
 10
143.2294517203129
 20
226.2905920729003
 30
0.0
 11
144.1871081216248
 21
223.6594527346998
 31
0.0
  0
LINE
  5
19B
330
75
100
AcDbEntity
  8
Visible (ISO)
100
AcDbLine
 10
124.3113561389601
 20
258.8578291155359
 30
0.0
 11
124.31135613896
 21
261.6578291155359
 31
0.0
  0
LINE
  5
19C
330
75
100
AcDbEntity
  8
Visible (ISO)
100
AcDbLine
 10
124.91135613896
 20
262.257829115536
 30
0.0
 11
131.31135613896
 21
262.257829115536
 31
0.0
  0
LINE
  5
19D
330
75
100
AcDbEntity
  8
Visible (ISO)
100
AcDbLine
 10
131.91135613896
 20
261.657829115536
 30
0.0
 11
131.9113561389601
 21
258.857829115536
 31
0.0
  0
LINE
  5
19E
330
75
100
AcDbEntity
  8
Visible (ISO)
100
AcDbLine
 10
131.3113561389601
 20
258.257829115536
 30
0.0
 11
124.9113561389601
 21
258.257829115536
 31
0.0
  0
LINE
  5
19F
330
75
100
AcDbEntity
  8
Visible (ISO)
100
AcDbLine
 10
121.3228663673263
 20
214.699042643583
 30
0.0
 11
114.2751717114321
 21
212.1338915686403
 31
0.0
  0
LINE
  5
1A0
330
75
100
AcDbEntity
  8
Visible (ISO)
100
AcDbLine
 10
87.11135613896022
 20
270.2578291155356
 30
0.0
 11
110.5113561389601
 21
270.2578291155358
 31
0.0
  0
LINE
  5
1A1
330
75
100
AcDbEntity
  8
Visible (ISO)
100
AcDbLine
 10
87.11135613896033
 20
259.5091748415917
 30
0.0
 11
87.11135613896022
 21
270.2578291155356
 31
0.0
  0
LINE
  5
1A2
330
75
100
AcDbEntity
  8
Visible (ISO)
100
AcDbLine
 10
102.4668264147941
 20
201.4509387298712
 30
0.0
 11
92.53902026822878
 21
228.7273619422816
 31
0.0
  0
LINE
  5
1A3
330
75
100
AcDbEntity
  8
Visible (ISO)
100
AcDbLine
 10
110.5113561389606
 20
204.3789080981376
 30
0.0
 11
102.4668264147941
 21
201.4509387298712
 31
0.0
  0
LINE
  5
1A4
330
75
100
AcDbEntity
  8
Visible (ISO)
100
AcDbLine
 10
92.91135613896024
 20
262.2578291155356
 30
0.0
 11
99.31135613896021
 21
262.2578291155357
 31
0.0
  0
LINE
  5
1A5
330
75
100
AcDbEntity
  8
Visible (ISO)
100
AcDbLine
 10
99.91135613896021
 20
261.6578291155357
 30
0.0
 11
99.91135613896027
 21
258.8578291155357
 31
0.0
  0
LINE
  5
1A6
330
75
100
AcDbEntity
  8
Visible (ISO)
100
AcDbLine
 10
99.31135613896024
 20
258.2578291155357
 30
0.0
 11
92.91135613896029
 21
258.2578291155357
 31
0.0
  0
LINE
  5
1A7
330
75
100
AcDbEntity
  8
Visible (ISO)
100
AcDbLine
 10
92.31135613896029
 20
258.8578291155357
 30
0.0
 11
92.31135613896027
 21
261.6578291155356
 31
0.0
  0
LINE
  5
1A8
330
75
100
AcDbEntity
  8
Visible (ISO)
100
AcDbLine
 10
109.4005173720205
 20
213.977866913176
 30
0.0
 11
110.3581737733324
 21
211.3467275749754
 31
0.0
  0
LINE
  5
1A9
330
75
100
AcDbEntity
  8
Visible (ISO)
100
AcDbLine
 10
109.9995702868562
 20
210.5776999165084
 30
0.0
 11
103.9855375138265
 21
208.3887709992241
 31
0.0
  0
LINE
  5
1AA
330
75
100
AcDbEntity
  8
Visible (ISO)
100
AcDbLine
 10
103.2165098553595
 20
208.7473744857003
 30
0.0
 11
102.2588534540476
 21
211.3785138239008
 31
0.0
  0
LINE
  5
1AB
330
75
100
AcDbEntity
  8
Visible (ISO)
100
AcDbLine
 10
102.6174569405238
 20
212.1475414823677
 30
0.0
 11
108.6314897135535
 21
214.3364703996521
 31
0.0
  0
LINE
  5
1AC
330
75
100
AcDbEntity
  8
Visible (ISO)
100
AcDbLine
 10
115.7634769989146
 20
206.2905237579295
 30
0.0
 11
113.7113561389606
 21
205.5436128477895
 31
0.0
  0
LINE
  5
1AD
330
75
100
AcDbEntity
  8
Visible (ISO)
100
AcDbLine
 10
113.916568224956
 20
211.3648639101733
 30
0.0
 11
115.7634769989146
 21
206.2905237579295
 31
0.0
  0
ARC
  5
1AE
330
75
100
AcDbEntity
  8
Visible (ISO)
100
AcDbCircle
 10
133.7440825235385
 20
218.5814889343451
 30
0.0
 40
0.600000000000006
100
AcDbArc
 50
19.99999999999958
 51
110.0000000000001
  0
ARC
  5
1AF
330
75
100
AcDbEntity
  8
Visible (ISO)
100
AcDbCircle
 10
137.6092597761235
 20
221.26531173142
 30
0.0
 40
0.5999999999999791
100
AcDbArc
 50
200.0000000000007
 51
290.0000000000034
  0
ARC
  5
1B0
330
75
100
AcDbEntity
  8
Visible (ISO)
100
AcDbCircle
 10
136.6516033748116
 20
223.8964510696206
 30
0.0
 40
0.599999999999983
100
AcDbArc
 50
110.0000000000001
 51
200.0000000000033
  0
ARC
  5
1B1
330
75
100
AcDbEntity
  8
Visible (ISO)
100
AcDbCircle
 10
142.6656361478413
 20
226.085379986905
 30
0.0
 40
0.599999999999974
100
AcDbArc
 50
19.99999999999698
 51
110.0000000000001
  0
ARC
  5
1B2
330
75
100
AcDbEntity
  8
Visible (ISO)
100
AcDbCircle
 10
143.6232925491532
 20
223.4542406487043
 30
0.0
 40
0.600000000000009
100
AcDbArc
 50
290.0000000000018
 51
19.99999999999905
  0
ARC
  5
1B3
330
75
100
AcDbEntity
  8
Visible (ISO)
100
AcDbCircle
 10
124.91135613896
 20
261.6578291155359
 30
0.0
 40
0.599999999999999
100
AcDbArc
 50
90.0
 51
180.0
  0
ARC
  5
1B4
330
75
100
AcDbEntity
  8
Visible (ISO)
100
AcDbCircle
 10
131.31135613896
 20
261.657829115536
 30
0.0
 40
0.5999999999999968
100
AcDbArc
 50
0.0
 51
90.0
  0
ARC
  5
1B5
330
75
100
AcDbEntity
  8
Visible (ISO)
100
AcDbCircle
 10
131.3113561389601
 20
258.857829115536
 30
0.0
 40
0.6000000000000034
100
AcDbArc
 50
270.0000000000017
 51
0.0
  0
ARC
  5
1B6
330
75
100
AcDbEntity
  8
Visible (ISO)
100
AcDbCircle
 10
124.9113561389601
 20
258.8578291155359
 30
0.0
 40
0.6000000000000013
100
AcDbArc
 50
180.0
 51
269.9999999999983
  0
ARC
  5
1B7
330
75
100
AcDbEntity
  8
Visible (ISO)
100
AcDbCircle
 10
99.31135613896021
 20
261.6578291155357
 30
0.0
 40
0.5999999999999968
100
AcDbArc
 50
0.0
 51
90.0
  0
ARC
  5
1B8
330
75
100
AcDbEntity
  8
Visible (ISO)
100
AcDbCircle
 10
99.31135613896024
 20
258.8578291155357
 30
0.0
 40
0.6000000000000034
100
AcDbArc
 50
270.0000000000017
 51
0.0
  0
ARC
  5
1B9
330
75
100
AcDbEntity
  8
Visible (ISO)
100
AcDbCircle
 10
92.91135613896029
 20
258.8578291155357
 30
0.0
 40
0.599999999999999
100
AcDbArc
 50
180.0
 51
269.9999999999983
  0
ARC
  5
1BA
330
75
100
AcDbEntity
  8
Visible (ISO)
100
AcDbCircle
 10
92.91135613896024
 20
261.6578291155356
 30
0.0
 40
0.599999999999999
100
AcDbArc
 50
90.0
 51
180.0
  0
ARC
  5
1BB
330
75
100
AcDbEntity
  8
Visible (ISO)
100
AcDbCircle
 10
109.7943582008608
 20
211.14151548898
 30
0.0
 40
0.5999999999999952
100
AcDbArc
 50
290.0000000000002
 51
20.00000000000017
  0
ARC
  5
1BC
330
75
100
AcDbEntity
  8
Visible (ISO)
100
AcDbCircle
 10
103.780325427831
 20
208.9525865716957
 30
0.0
 40
0.5999999999999801
100
AcDbArc
 50
200.0000000000002
 51
290.0000000000018
  0
ARC
  5
1BD
330
75
100
AcDbEntity
  8
Visible (ISO)
100
AcDbCircle
 10
102.8226690265192
 20
211.5837259098962
 30
0.0
 40
0.5999999999999871
100
AcDbArc
 50
110.0000000000001
 51
200.0000000000002
  0
ARC
  5
1BE
330
75
100
AcDbEntity
  8
Visible (ISO)
100
AcDbCircle
 10
108.8367017995489
 20
213.7726548271806
 30
0.0
 40
0.5999999999999908
100
AcDbArc
 50
20.00000000000016
 51
110.0000000000018
  0
ARC
  5
1BF
330
75
100
AcDbEntity
  8
Visible (ISO)
100
AcDbCircle
 10
114.4803837974275
 20
211.5700759961687
 30
0.0
 40
0.5999999999999939
100
AcDbArc
 50
110.0000000000001
 51
200.0000000000002
  0
ARC
  5
1C0
330
75
100
AcDbEntity
  8
Visible (ISO)
100
AcDbCircle
 10
227.1113561389592
 20
268.3255238770162
 30
0.0
 40
89.99999999999944
100
AcDbArc
 50
180.0
 51
200.0000000000006
  0
ARC
  5
1C1
330
75
100
AcDbEntity
  8
Visible (ISO)
100
AcDbCircle
 10
177.111356138959
 20
259.5091748415923
 30
0.0
 40
89.99999999999891
100
AcDbArc
 50
180.0
 51
200.0000000000007
  0
CIRCLE
  5
1C2
330
75
100
AcDbEntity
  8
Visible (ISO)
100
AcDbCircle
 10
58.21135613896039
 20
177.8662017422521
 30
0.0
 40
4.0
  0
LINE
  5
1C3
330
75
100
AcDbEntity
  8
Visible (ISO)
100
AcDbLine
 10
52.92010365678733
 20
172.7071339482382
 30
0.0
 11
51.09784612841173
 21
179.8690269126445
 31
0.0
  0
LINE
  5
1C4
330
75
100
AcDbEntity
  8
Visible (ISO)
100
AcDbLine
 10
60.033613667336
 20
170.7043087778458
 30
0.0
 11
52.92010365678735
 21
172.7071339482383
 31
0.0
  0
LINE
  5
1C5
330
75
100
AcDbEntity
  8
Visible (ISO)
100
AcDbLine
 10
65.32486614950903
 20
175.8633765718597
 30
0.0
 11
60.03361366733598
 21
170.7043087778458
 31
0.0
  0
LINE
  5
1C6
330
75
100
AcDbEntity
  8
Visible (ISO)
100
AcDbLine
 10
63.50260862113344
 20
183.0252695362659
 30
0.0
 11
65.32486614950903
 21
175.8633765718597
 31
0.0
  0
LINE
  5
1C7
330
75
100
AcDbEntity
  8
Visible (ISO)
100
AcDbLine
 10
56.38909861058474
 20
185.0280947066583
 30
0.0
 11
63.50260862113343
 21
183.0252695362659
 31
0.0
  0
LINE
  5
1C8
330
75
100
AcDbEntity
  8
Visible (ISO)
100
AcDbLine
 10
51.09784612841171
 20
179.8690269126445
 30
0.0
 11
56.38909861058473
 21
185.0280947066583
 31
0.0
  0
ARC
  5
1C9
330
75
100
AcDbEntity
  8
Visible (ISO)
100
AcDbCircle
 10
58.21135613896203
 20
177.8662017422511
 30
0.0
 40
18.75000000000194
100
AcDbArc
 50
146.6503120789179
 51
148.9003120789177
  0
ARC
  5
1CA
330
75
100
AcDbEntity
  8
Visible (ISO)
100
AcDbCircle
 10
38.89969734403612
 20
176.8760002022861
 30
0.0
 40
11.16080153725972
100
AcDbArc
 50
73.03491366208442
 51
85.2819739417273
  0
ARC
  5
1CB
330
75
100
AcDbEntity
  8
Visible (ISO)
100
AcDbCircle
 10
50.77543952213496
 20
195.7163504410431
 30
0.0
 40
11.16080153726015
100
AcDbArc
 50
210.2686502161086
 51
222.515710495751
  0
ARC
  5
1CC
330
75
100
AcDbEntity
  8
Visible (ISO)
100
AcDbCircle
 10
58.21135613896071
 20
177.8662017422519
 30
0.0
 40
18.75000000000035
100
AcDbArc
 50
155.6503120789178
 51
157.9003120789174
  0
ARC
  5
1CD
330
75
100
AcDbEntity
  8
Visible (ISO)
100
AcDbCircle
 10
39.29235755784874
 20
173.8671822137651
 30
0.0
 40
11.16080153725949
100
AcDbArc
 50
82.03491366208432
 51
94.28197394172739
  0
ARC
  5
1CE
330
75
100
AcDbEntity
  8
Visible (ISO)
100
AcDbCircle
 10
48.07460953230028
 20
194.3333518519006
 30
0.0
 40
11.16080153726007
100
AcDbArc
 50
219.2686502161086
 51
231.5157104957509
  0
ARC
  5
1CF
330
75
100
AcDbEntity
  8
Visible (ISO)
100
AcDbCircle
 10
58.2113561389686
 20
177.8662017422501
 30
0.0
 40
18.75000000000845
100
AcDbArc
 50
164.6503120789184
 51
166.9003120789175
  0
ARC
  5
1D0
330
75
100
AcDbEntity
  8
Visible (ISO)
100
AcDbCircle
 10
40.15086630528476
 20
170.95683335802
 30
0.0
 40
11.16080153725961
100
AcDbArc
 50
91.03491366208441
 51
103.2819739417274
  0
ARC
  5
1D1
330
75
100
AcDbEntity
  8
Visible (ISO)
100
AcDbCircle
 10
45.62337988585475
 20
192.5448773757204
 30
0.0
 40
11.16080153725991
100
AcDbArc
 50
228.2686502161085
 51
240.5157104957511
  0
ARC
  5
1D2
330
75
100
AcDbEntity
  8
Visible (ISO)
100
AcDbCircle
 10
58.21135613896437
 20
177.8662017422518
 30
0.0
 40
18.75000000000399
100
AcDbArc
 50
173.6503120789181
 51
175.9003120789178
  0
ARC
  5
1D3
330
75
100
AcDbEntity
  8
Visible (ISO)
100
AcDbCircle
 10
41.45408425175534
 20
168.2166160827733
 30
0.0
 40
11.1608015372602
100
AcDbArc
 50
100.0349136620847
 51
112.281973941727
  0
ARC
  5
1D4
330
75
100
AcDbEntity
  8
Visible (ISO)
100
AcDbCircle
 10
43.48210799185888
 20
190.3949651897132
 30
0.0
 40
11.16080153726015
100
AcDbArc
 50
237.2686502161086
 51
249.5157104957509
  0
ARC
  5
1D5
330
75
100
AcDbEntity
  8
Visible (ISO)
100
AcDbCircle
 10
58.21135613895683
 20
177.8662017422518
 30
0.0
 40
18.74999999999642
100
AcDbArc
 50
182.6503120789173
 51
184.9003120789177
  0
ARC
  5
1D6
330
75
100
AcDbEntity
  8
Visible (ISO)
100
AcDbCircle
 10
43.16992184628553
 20
165.7140036316027
 30
0.0
 40
11.16080153725972
100
AcDbArc
 50
109.0349136620844
 51
121.2819739417272
  0
ARC
  5
1D7
330
75
100
AcDbEntity
  8
Visible (ISO)
100
AcDbCircle
 10
41.70351907081653
 20
187.9365532670474
 30
0.0
 40
11.16080153726018
100
AcDbArc
 50
246.2686502161087
 51
258.5157104957509
  0
ARC
  5
1D8
330
75
100
AcDbEntity
  8
Visible (ISO)
100
AcDbCircle
 10
58.21135613895947
 20
177.8662017422519
 30
0.0
 40
18.74999999999905
100
AcDbArc
 50
191.6503120789177
 51
193.900312078918
  0
ARC
  5
1D9
330
75
100
AcDbEntity
  8
Visible (ISO)
100
AcDbCircle
 10
45.25612947276002
 20
163.5106186287488
 30
0.0
 40
11.16080153725991
100
AcDbArc
 50
118.0349136620845
 51
130.2819739417271
  0
ARC
  5
1DA
330
75
100
AcDbEntity
  8
Visible (ISO)
100
AcDbCircle
 10
40.33140788476202
 20
185.2301758682602
 30
0.0
 40
11.16080153725988
100
AcDbArc
 50
255.2686502161084
 51
267.515710495751
  0
ARC
  5
1DB
330
75
100
AcDbEntity
  8
Visible (ISO)
100
AcDbCircle
 10
58.2113561389638
 20
177.8662017422535
 30
0.0
 40
18.75000000000366
100
AcDbArc
 50
200.650312078918
 51
202.9003120789174
  0
ARC
  5
1DC
330
75
100
AcDbEntity
  8
Visible (ISO)
100
AcDbCircle
 10
47.66133777568859
 20
161.6607157255984
 30
0.0
 40
11.16080153726002
100
AcDbArc
 50
127.0349136620846
 51
139.2819739417271
  0
ARC
  5
1DD
330
75
100
AcDbEntity
  8
Visible (ISO)
100
AcDbCircle
 10
39.39956036487208
 20
182.3424729868621
 30
0.0
 40
11.16080153725997
100
AcDbArc
 50
264.2686502161085
 51
276.5157104957511
  0
ARC
  5
1DE
330
75
100
AcDbEntity
  8
Visible (ISO)
100
AcDbCircle
 10
58.21135613895274
 20
177.8662017422475
 30
0.0
 40
18.74999999999109
100
AcDbArc
 50
209.6503120789172
 51
211.900312078918
  0
ARC
  5
1DF
330
75
100
AcDbEntity
  8
Visible (ISO)
100
AcDbCircle
 10
50.32632254422439
 20
160.2098456711027
 30
0.0
 40
11.16080153726
100
AcDbArc
 50
136.0349136620847
 51
148.2819739417272
  0
ARC
  5
1E0
330
75
100
AcDbEntity
  8
Visible (ISO)
100
AcDbCircle
 10
38.93092168971095
 20
179.3445494515291
 30
0.0
 40
11.16080153725992
100
AcDbArc
 50
273.2686502161085
 51
285.5157104957511
  0
ARC
  5
1E1
330
75
100
AcDbEntity
  8
Visible (ISO)
100
AcDbCircle
 10
58.21135613896924
 20
177.8662017422595
 30
0.0
 40
18.75000000001151
100
AcDbArc
 50
218.6503120789184
 51
220.9003120789172
  0
ARC
  5
1E2
330
75
100
AcDbEntity
  8
Visible (ISO)
100
AcDbCircle
 10
53.18546300878871
 20
159.1937337011649
 30
0.0
 40
11.16080153725995
100
AcDbArc
 50
145.0349136620844
 51
157.281973941727
  0
ARC
  5
1E3
330
75
100
AcDbEntity
  8
Visible (ISO)
100
AcDbCircle
 10
38.93703129878371
 20
176.3102240892388
 30
0.0
 40
11.16080153725983
100
AcDbArc
 50
282.2686502161085
 51
294.5157104957512
  0
ARC
  5
1E4
330
75
100
AcDbEntity
  8
Visible (ISO)
100
AcDbCircle
 10
58.21135613896417
 20
177.8662017422564
 30
0.0
 40
18.75000000000575
100
AcDbArc
 50
227.6503120789183
 51
229.9003120789174
  0
ARC
  5
1E5
330
75
100
AcDbEntity
  8
Visible (ISO)
100
AcDbCircle
 10
56.16835764220084
 20
158.6373998647672
 30
0.0
 40
11.16080153725987
100
AcDbArc
 50
154.0349136620847
 51
166.2819739417273
  0
ARC
  5
1E6
330
75
100
AcDbEntity
  8
Visible (ISO)
100
AcDbCircle
 10
39.41773875323831
 20
173.3142120607597
 30
0.0
 40
11.16080153725987
100
AcDbArc
 50
291.2686502161084
 51
303.5157104957511
  0
ARC
  5
1E7
330
75
100
AcDbEntity
  8
Visible (ISO)
100
AcDbCircle
 10
58.21135613896143
 20
177.8662017422537
 30
0.0
 40
18.75000000000194
100
AcDbArc
 50
236.6503120789179
 51
238.9003120789176
  0
ARC
  5
1E8
330
75
100
AcDbEntity
  8
Visible (ISO)
100
AcDbCircle
 10
59.20155767892637
 20
158.5545429473278
 30
0.0
 40
11.16080153725972
100
AcDbArc
 50
163.0349136620845
 51
175.2819739417273
  0
ARC
  5
1E9
330
75
100
AcDbEntity
  8
Visible (ISO)
100
AcDbCircle
 10
40.36120744016937
 20
170.4302851254267
 30
0.0
 40
11.16080153726015
100
AcDbArc
 50
300.2686502161087
 51
312.5157104957511
  0
ARC
  5
1EA
330
75
100
AcDbEntity
  8
Visible (ISO)
100
AcDbCircle
 10
58.21135613896104
 20
177.8662017422535
 30
0.0
 40
18.75000000000158
100
AcDbArc
 50
245.6503120789178
 51
247.9003120789177
  0
ARC
  5
1EB
330
75
100
AcDbEntity
  8
Visible (ISO)
100
AcDbCircle
 10
62.21037566744812
 20
158.9472031611404
 30
0.0
 40
11.16080153726025
100
AcDbArc
 50
172.0349136620847
 51
184.2819739417269
  0
ARC
  5
1EC
330
75
100
AcDbEntity
  8
Visible (ISO)
100
AcDbCircle
 10
41.74420602931201
 20
167.7294551355919
 30
0.0
 40
11.16080153725996
100
AcDbArc
 50
309.2686502161086
 51
321.5157104957509
  0
ARC
  5
1ED
330
75
100
AcDbEntity
  8
Visible (ISO)
100
AcDbCircle
 10
58.21135613896243
 20
177.8662017422603
 30
0.0
 40
18.75000000000845
100
AcDbArc
 50
254.6503120789185
 51
256.9003120789175
  0
ARC
  5
1EE
330
75
100
AcDbEntity
  8
Visible (ISO)
100
AcDbCircle
 10
65.12072452319262
 20
159.8057119085765
 30
0.0
 40
11.16080153725978
100
AcDbArc
 50
181.0349136620843
 51
193.2819739417272
  0
ARC
  5
1EF
330
75
100
AcDbEntity
  8
Visible (ISO)
100
AcDbCircle
 10
43.53268050549202
 20
165.2782254891465
 30
0.0
 40
11.16080153725995
100
AcDbArc
 50
318.2686502161085
 51
330.515710495751
  0
ARC
  5
1F0
330
75
100
AcDbEntity
  8
Visible (ISO)
100
AcDbCircle
 10
58.21135613896043
 20
177.8662017422525
 30
0.0
 40
18.75000000000034
100
AcDbArc
 50
263.6503120789178
 51
265.9003120789179
  0
ARC
  5
1F1
330
75
100
AcDbEntity
  8
Visible (ISO)
100
AcDbCircle
 10
67.86094179843939
 20
161.1089298550471
 30
0.0
 40
11.16080153726038
100
AcDbArc
 50
190.0349136620849
 51
202.281973941727
  0
ARC
  5
1F2
330
75
100
AcDbEntity
  8
Visible (ISO)
100
AcDbCircle
 10
45.6825926914994
 20
163.1369535951505
 30
0.0
 40
11.16080153725999
100
AcDbArc
 50
327.2686502161085
 51
339.5157104957511
  0
ARC
  5
1F3
330
75
100
AcDbEntity
  8
Visible (ISO)
100
AcDbCircle
 10
58.21135613896036
 20
177.8662017422528
 30
0.0
 40
18.75000000000071
100
AcDbArc
 50
272.6503120789178
 51
274.9003120789175
  0
ARC
  5
1F4
330
75
100
AcDbEntity
  8
Visible (ISO)
100
AcDbCircle
 10
70.36355424961008
 20
162.8247674495774
 30
0.0
 40
11.16080153726
100
AcDbArc
 50
199.0349136620846
 51
211.2819739417272
  0
ARC
  5
1F5
330
75
100
AcDbEntity
  8
Visible (ISO)
100
AcDbCircle
 10
48.14100461416543
 20
161.3583646741081
 30
0.0
 40
11.16080153725982
100
AcDbArc
 50
336.2686502161084
 51
348.5157104957511
  0
ARC
  5
1F6
330
75
100
AcDbEntity
  8
Visible (ISO)
100
AcDbCircle
 10
58.21135613895993
 20
177.8662017422542
 30
0.0
 40
18.75000000000214
100
AcDbArc
 50
281.6503120789179
 51
283.9003120789175
  0
ARC
  5
1F7
330
75
100
AcDbEntity
  8
Visible (ISO)
100
AcDbCircle
 10
72.56693925246366
 20
164.9109750760517
 30
0.0
 40
11.16080153725991
100
AcDbArc
 50
208.0349136620845
 51
220.2819739417272
  0
ARC
  5
1F8
330
75
100
AcDbEntity
  8
Visible (ISO)
100
AcDbCircle
 10
50.84738201295203
 20
159.9862534880538
 30
0.0
 40
11.16080153726014
100
AcDbArc
 50
345.2686502161085
 51
357.5157104957511
  0
ARC
  5
1F9
330
75
100
AcDbEntity
  8
Visible (ISO)
100
AcDbCircle
 10
58.21135613895904
 20
177.8662017422555
 30
0.0
 40
18.75000000000366
100
AcDbArc
 50
290.650312078918
 51
292.9003120789176
  0
ARC
  5
1FA
330
75
100
AcDbEntity
  8
Visible (ISO)
100
AcDbCircle
 10
74.41684215561406
 20
167.3161833789803
 30
0.0
 40
11.16080153725999
100
AcDbArc
 50
217.0349136620846
 51
229.2819739417271
  0
ARC
  5
1FB
330
75
100
AcDbEntity
  8
Visible (ISO)
100
AcDbCircle
 10
53.73508489435057
 20
159.0544059681638
 30
0.0
 40
11.16080153725976
100
AcDbArc
 50
354.2686502161084
 51
6.515710495751029
  0
ARC
  5
1FC
330
75
100
AcDbEntity
  8
Visible (ISO)
100
AcDbCircle
 10
58.21135613896498
 20
177.8662017422445
 30
0.0
 40
18.74999999999109
100
AcDbArc
 50
299.6503120789172
 51
301.9003120789182
  0
ARC
  5
1FD
330
75
100
AcDbEntity
  8
Visible (ISO)
100
AcDbCircle
 10
75.86771221010979
 20
169.9811681475161
 30
0.0
 40
11.16080153725998
100
AcDbArc
 50
226.0349136620845
 51
238.2819739417271
  0
ARC
  5
1FE
330
75
100
AcDbEntity
  8
Visible (ISO)
100
AcDbCircle
 10
56.73300842968342
 20
158.5857672930027
 30
0.0
 40
11.16080153725991
100
AcDbArc
 50
3.268650216108581
 51
15.51571049575113
  0
ARC
  5
1FF
330
75
100
AcDbEntity
  8
Visible (ISO)
100
AcDbCircle
 10
58.21135613895306
 20
177.8662017422609
 30
0.0
 40
18.75000000001145
100
AcDbArc
 50
308.6503120789185
 51
310.9003120789172
  0
ARC
  5
200
330
75
100
AcDbEntity
  8
Visible (ISO)
100
AcDbCircle
 10
76.8838241800476
 20
172.8403086120804
 30
0.0
 40
11.16080153725996
100
AcDbArc
 50
235.0349136620846
 51
247.281973941727
  0
ARC
  5
201
330
75
100
AcDbEntity
  8
Visible (ISO)
100
AcDbCircle
 10
59.76733379197383
 20
158.5918769020755
 30
0.0
 40
11.16080153725965
100
AcDbArc
 50
12.26865021610837
 51
24.51571049575121
  0
ARC
  5
202
330
75
100
AcDbEntity
  8
Visible (ISO)
100
AcDbCircle
 10
58.21135613895606
 20
177.8662017422559
 30
0.0
 40
18.75000000000575
100
AcDbArc
 50
317.6503120789182
 51
319.9003120789175
  0
ARC
  5
203
330
75
100
AcDbEntity
  8
Visible (ISO)
100
AcDbCircle
 10
77.4401580164454
 20
175.8232032454928
 30
0.0
 40
11.16080153726018
100
AcDbArc
 50
244.0349136620847
 51
256.2819739417271
  0
ARC
  5
204
330
75
100
AcDbEntity
  8
Visible (ISO)
100
AcDbCircle
 10
62.76334582045286
 20
159.0725843565301
 30
0.0
 40
11.16080153725981
100
AcDbArc
 50
21.26865021610851
 51
33.51571049575135
  0
ARC
  5
205
330
75
100
AcDbEntity
  8
Visible (ISO)
100
AcDbCircle
 10
58.21135613895851
 20
177.8662017422533
 30
0.0
 40
18.75000000000223
100
AcDbArc
 50
326.650312078918
 51
328.9003120789177
  0
ARC
  5
206
330
75
100
AcDbEntity
  8
Visible (ISO)
100
AcDbCircle
 10
77.52301493388467
 20
178.8564032822181
 30
0.0
 40
11.16080153725971
100
AcDbArc
 50
253.0349136620845
 51
265.2819739417272
  0
ARC
  5
207
330
75
100
AcDbEntity
  8
Visible (ISO)
100
AcDbCircle
 10
65.64727275578587
 20
160.0160530434611
 30
0.0
 40
11.1608015372601
100
AcDbArc
 50
30.26865021610851
 51
42.51571049575094
  0
ARC
  5
208
330
75
100
AcDbEntity
  8
Visible (ISO)
100
AcDbCircle
 10
58.21135613895896
 20
177.8662017422528
 30
0.0
 40
18.75000000000158
100
AcDbArc
 50
335.6503120789178
 51
337.9003120789176
  0
ARC
  5
209
330
75
100
AcDbEntity
  8
Visible (ISO)
100
AcDbCircle
 10
77.13035472007206
 20
181.8652212707394
 30
0.0
 40
11.16080153725981
100
AcDbArc
 50
262.0349136620845
 51
274.2819739417272
  0
ARC
  5
20A
330
75
100
AcDbEntity
  8
Visible (ISO)
100
AcDbCircle
 10
68.34810274562058
 20
161.3990516326038
 30
0.0
 40
11.16080153725996
100
AcDbArc
 50
39.26865021610843
 51
51.51571049575111
  0
ARC
  5
20B
330
75
100
AcDbEntity
  8
Visible (ISO)
100
AcDbCircle
 10
58.21135613895855
 20
177.8662017422526
 30
0.0
 40
18.7500000000019
100
AcDbArc
 50
344.650312078918
 51
346.9003120789175
  0
ARC
  5
20C
330
75
100
AcDbEntity
  8
Visible (ISO)
100
AcDbCircle
 10
76.27184597263594
 20
184.7755701264848
 30
0.0
 40
11.16080153726022
100
AcDbArc
 50
271.0349136620847
 51
283.281973941727
  0
ARC
  5
20D
330
75
100
AcDbEntity
  8
Visible (ISO)
100
AcDbCircle
 10
70.79933239206593
 20
163.1875261087836
 30
0.0
 40
11.1608015372601
100
AcDbArc
 50
48.26865021610847
 51
60.51571049575087
  0
ARC
  5
20E
330
75
100
AcDbEntity
  8
Visible (ISO)
100
AcDbCircle
 10
58.21135613896005
 20
177.8662017422522
 30
0.0
 40
18.75000000000034
100
AcDbArc
 50
353.6503120789178
 51
355.9003120789177
  0
ARC
  5
20F
330
75
100
AcDbEntity
  8
Visible (ISO)
100
AcDbCircle
 10
74.96862802616546
 20
187.5157874017308
 30
0.0
 40
11.1608015372601
100
AcDbArc
 50
280.0349136620846
 51
292.2819739417271
  0
ARC
  5
210
330
75
100
AcDbEntity
  8
Visible (ISO)
100
AcDbCircle
 10
72.94060428606188
 20
165.3374382947909
 30
0.0
 40
11.16080153726018
100
AcDbArc
 50
57.26865021610866
 51
69.51571049575097
  0
ARC
  5
211
330
75
100
AcDbEntity
  8
Visible (ISO)
100
AcDbCircle
 10
58.21135613896387
 20
177.8662017422524
 30
0.0
 40
18.74999999999651
100
AcDbArc
 50
2.650312078917372
 51
4.900312078917748
  0
ARC
  5
212
330
75
100
AcDbEntity
  8
Visible (ISO)
100
AcDbCircle
 10
73.25279043163516
 20
190.0183998529017
 30
0.0
 40
11.16080153725993
100
AcDbArc
 50
289.0349136620846
 51
301.2819739417271
  0
ARC
  5
213
330
75
100
AcDbEntity
  8
Visible (ISO)
100
AcDbCircle
 10
74.7191932071043
 20
167.795850217457
 30
0.0
 40
11.16080153725999
100
AcDbArc
 50
66.2686502161085
 51
78.51571049575092
  0
ARC
  5
214
330
75
100
AcDbEntity
  8
Visible (ISO)
100
AcDbCircle
 10
58.21135613895831
 20
177.8662017422516
 30
0.0
 40
18.75000000000214
100
AcDbArc
 50
11.65031207891776
 51
13.90031207891736
  0
ARC
  5
215
330
75
100
AcDbEntity
  8
Visible (ISO)
100
AcDbCircle
 10
71.16658280516077
 20
192.2217848557554
 30
0.0
 40
11.16080153725991
100
AcDbArc
 50
298.0349136620846
 51
310.2819739417272
  0
ARC
  5
216
330
75
100
AcDbEntity
  8
Visible (ISO)
100
AcDbCircle
 10
76.0913043931588
 20
170.5022276162441
 30
0.0
 40
11.16080153725977
100
AcDbArc
 50
75.26865021610844
 51
87.51571049575117
  0
ARC
  5
217
330
75
100
AcDbEntity
  8
Visible (ISO)
100
AcDbCircle
 10
58.21135613895698
 20
177.8662017422508
 30
0.0
 40
18.75000000000366
100
AcDbArc
 50
20.650312078918
 51
22.90031207891748
  0
ARC
  5
218
330
75
100
AcDbEntity
  8
Visible (ISO)
100
AcDbCircle
 10
68.7613745022322
 20
194.0716877589058
 30
0.0
 40
11.16080153726002
100
AcDbArc
 50
307.0349136620846
 51
319.2819739417271
  0
ARC
  5
219
330
75
100
AcDbEntity
  8
Visible (ISO)
100
AcDbCircle
 10
77.02315191304872
 20
173.3899304976421
 30
0.0
 40
11.16080153725997
100
AcDbArc
 50
84.26865021610856
 51
96.51571049575109
  0
ARC
  5
21A
330
75
100
AcDbEntity
  8
Visible (ISO)
100
AcDbCircle
 10
58.21135613896837
 20
177.8662017422569
 30
0.0
 40
18.74999999999072
100
AcDbArc
 50
29.65031207891721
 51
31.90031207891836
  0
ARC
  5
21B
330
75
100
AcDbEntity
  8
Visible (ISO)
100
AcDbCircle
 10
66.09638973369634
 20
195.5225578134016
 30
0.0
 40
11.16080153726008
100
AcDbArc
 50
316.0349136620846
 51
328.2819739417271
  0
ARC
  5
21C
330
75
100
AcDbEntity
  8
Visible (ISO)
100
AcDbCircle
 10
77.49179058820984
 20
176.3878540329751
 30
0.0
 40
11.16080153725991
100
AcDbArc
 50
93.26865021610851
 51
105.515710495751
  0
ARC
  5
21D
330
75
100
AcDbEntity
  8
Visible (ISO)
100
AcDbCircle
 10
58.21135613895158
 20
177.8662017422448
 30
0.0
 40
18.75000000001148
100
AcDbArc
 50
38.65031207891855
 51
40.90031207891708
  0
ARC
  5
21E
330
75
100
AcDbEntity
  8
Visible (ISO)
100
AcDbCircle
 10
63.23724926913182
 20
196.5386697833394
 30
0.0
 40
11.16080153726023
100
AcDbArc
 50
325.0349136620847
 51
337.2819739417269
  0
ARC
  5
21F
330
75
100
AcDbEntity
  8
Visible (ISO)
100
AcDbCircle
 10
77.48568097913703
 20
179.4221793952654
 30
0.0
 40
11.16080153725974
100
AcDbArc
 50
102.2686502161083
 51
114.5157104957511
  0
ARC
  5
220
330
75
100
AcDbEntity
  8
Visible (ISO)
100
AcDbCircle
 10
58.21135613895663
 20
177.8662017422478
 30
0.0
 40
18.75000000000575
100
AcDbArc
 50
47.65031207891826
 51
49.90031207891742
  0
ARC
  5
221
330
75
100
AcDbEntity
  8
Visible (ISO)
100
AcDbCircle
 10
60.25435463571994
 20
197.095003619737
 30
0.0
 40
11.16080153725987
100
AcDbArc
 50
334.0349136620846
 51
346.2819739417274
  0
ARC
  5
222
330
75
100
AcDbEntity
  8
Visible (ISO)
100
AcDbCircle
 10
77.00497352468248
 20
182.4181914237445
 30
0.0
 40
11.16080153725987
100
AcDbArc
 50
111.2686502161085
 51
123.5157104957511
  0
ARC
  5
223
330
75
100
AcDbEntity
  8
Visible (ISO)
100
AcDbCircle
 10
58.21135613895918
 20
177.8662017422502
 30
0.0
 40
18.75000000000227
100
AcDbArc
 50
56.65031207891794
 51
58.9003120789176
  0
ARC
  5
224
330
75
100
AcDbEntity
  8
Visible (ISO)
100
AcDbCircle
 10
57.22115459899428
 20
197.1778605371764
 30
0.0
 40
11.16080153725985
100
AcDbArc
 50
343.0349136620845
 51
355.2819739417271
  0
ARC
  5
225
330
75
100
AcDbEntity
  8
Visible (ISO)
100
AcDbCircle
 10
76.06150483775135
 20
185.3021183590776
 30
0.0
 40
11.16080153726004
100
AcDbArc
 50
120.2686502161085
 51
132.515710495751
  0
ARC
  5
226
330
75
100
AcDbEntity
  8
Visible (ISO)
100
AcDbCircle
 10
58.21135613895975
 20
177.8662017422506
 30
0.0
 40
18.75000000000158
100
AcDbArc
 50
65.65031207891782
 51
67.90031207891771
  0
ARC
  5
227
330
75
100
AcDbEntity
  8
Visible (ISO)
100
AcDbCircle
 10
54.21233661047286
 20
196.7852003233638
 30
0.0
 40
11.16080153726005
100
AcDbArc
 50
352.0349136620846
 51
4.281973941726936
  0
ARC
  5
228
330
75
100
AcDbEntity
  8
Visible (ISO)
100
AcDbCircle
 10
74.6785062486089
 20
188.0029483489122
 30
0.0
 40
11.16080153726015
100
AcDbArc
 50
129.2686502161086
 51
141.515710495751
  0
ARC
  5
229
330
75
100
AcDbEntity
  8
Visible (ISO)
100
AcDbCircle
 10
58.21135613895835
 20
177.8662017422439
 30
0.0
 40
18.75000000000845
100
AcDbArc
 50
74.65031207891846
 51
76.90031207891753
  0
ARC
  5
22A
330
75
100
AcDbEntity
  8
Visible (ISO)
100
AcDbCircle
 10
51.30198775472834
 20
195.9266915759278
 30
0.0
 40
11.16080153725961
100
AcDbArc
 50
1.034913662084359
 51
13.28197394172745
  0
ARC
  5
22B
330
75
100
AcDbEntity
  8
Visible (ISO)
100
AcDbCircle
 10
72.89003177242872
 20
190.4541779953578
 30
0.0
 40
11.16080153725991
100
AcDbArc
 50
138.2686502161083
 51
150.515710495751
  0
ARC
  5
22C
330
75
100
AcDbEntity
  8
Visible (ISO)
100
AcDbCircle
 10
58.21135613896036
 20
177.8662017422518
 30
0.0
 40
18.75000000000034
100
AcDbArc
 50
83.65031207891778
 51
85.90031207891785
  0
ARC
  5
22D
330
75
100
AcDbEntity
  8
Visible (ISO)
100
AcDbCircle
 10
48.56177047948168
 20
194.6234736294572
 30
0.0
 40
11.1608015372601
100
AcDbArc
 50
10.0349136620847
 51
22.28197394172718
  0
ARC
  5
22E
330
75
100
AcDbEntity
  8
Visible (ISO)
100
AcDbCircle
 10
70.74011958642156
 20
192.5954498893536
 30
0.0
 40
11.16080153726018
100
AcDbArc
 50
147.2686502161087
 51
159.515710495751
  0
ARC
  5
22F
330
75
100
AcDbEntity
  8
Visible (ISO)
100
AcDbCircle
 10
58.21135613896011
 20
177.8662017422556
 30
0.0
 40
18.74999999999642
100
AcDbArc
 50
92.65031207891739
 51
94.90031207891782
  0
ARC
  5
230
330
75
100
AcDbEntity
  8
Visible (ISO)
100
AcDbCircle
 10
46.05915802831092
 20
192.907636034927
 30
0.0
 40
11.16080153725975
100
AcDbArc
 50
19.03491366208442
 51
31.28197394172725
  0
ARC
  5
231
330
75
100
AcDbEntity
  8
Visible (ISO)
100
AcDbCircle
 10
68.28170766375551
 20
194.374038810396
 30
0.0
 40
11.16080153725999
100
AcDbArc
 50
156.2686502161086
 51
168.5157104957511
  0
ARC
  5
232
330
75
100
AcDbEntity
  8
Visible (ISO)
100
AcDbCircle
 10
58.21135613896018
 20
177.866201742253
 30
0.0
 40
18.74999999999905
100
AcDbArc
 50
101.6503120789177
 51
103.9003120789179
  0
ARC
  5
233
330
75
100
AcDbEntity
  8
Visible (ISO)
100
AcDbCircle
 10
43.85577302545714
 20
190.8214284084525
 30
0.0
 40
11.16080153725991
100
AcDbArc
 50
28.03491366208444
 51
40.28197394172713
  0
ARC
  5
234
330
75
100
AcDbEntity
  8
Visible (ISO)
100
AcDbCircle
 10
65.5753302649685
 20
195.7461499964505
 30
0.0
 40
11.16080153725988
100
AcDbArc
 50
165.2686502161085
 51
177.5157104957511
  0
ARC
  5
235
330
75
100
AcDbEntity
  8
Visible (ISO)
100
AcDbCircle
 10
58.21135613896174
 20
177.8662017422487
 30
0.0
 40
18.75000000000366
100
AcDbArc
 50
110.650312078918
 51
112.9003120789175
  0
ARC
  5
236
330
75
100
AcDbEntity
  8
Visible (ISO)
100
AcDbCircle
 10
42.00587012230672
 20
188.4162201055239
 30
0.0
 40
11.16080153726002
100
AcDbArc
 50
37.03491366208453
 51
49.28197394172714
  0
ARC
  5
237
330
75
100
AcDbEntity
  8
Visible (ISO)
100
AcDbCircle
 10
62.68762738357043
 20
196.6779975163404
 30
0.0
 40
11.16080153725997
100
AcDbArc
 50
174.2686502161086
 51
186.5157104957512
  0
ARC
  5
238
330
75
100
AcDbEntity
  8
Visible (ISO)
100
AcDbCircle
 10
58.21135613896117
 20
177.8662017422508
 30
0.0
 40
18.75000000000153
100
AcDbArc
 50
119.6503120789177
 51
121.9003120789176
  0
ARC
  5
239
330
75
100
AcDbEntity
  8
Visible (ISO)
100
AcDbCircle
 10
40.55500006781099
 20
185.7512353369881
 30
0.0
 40
11.16080153725999
100
AcDbArc
 50
46.0349136620845
 51
58.28197394172705
  0
ARC
  5
23A
330
75
100
AcDbEntity
  8
Visible (ISO)
100
AcDbCircle
 10
59.68970384823723
 20
197.1466361915015
 30
0.0
 40
11.16080153725977
100
AcDbArc
 50
183.2686502161083
 51
195.5157104957512
  0
ARC
  5
23B
330
75
100
AcDbEntity
  8
Visible (ISO)
100
AcDbCircle
 10
58.21135613896772
 20
177.8662017422433
 30
0.0
 40
18.75000000001144
100
AcDbArc
 50
128.6503120789185
 51
130.9003120789171
  0
ARC
  5
23C
330
75
100
AcDbEntity
  8
Visible (ISO)
100
AcDbCircle
 10
39.53888809787324
 20
182.8920948724239
 30
0.0
 40
11.16080153725986
100
AcDbArc
 50
55.03491366208458
 51
67.28197394172733
  0
ARC
  5
23D
330
75
100
AcDbEntity
  8
Visible (ISO)
100
AcDbCircle
 10
56.65537848594711
 20
197.1405265824287
 30
0.0
 40
11.1608015372598
100
AcDbArc
 50
192.2686502161083
 51
204.5157104957512
  0
ARC
  5
23E
330
75
100
AcDbEntity
  8
Visible (ISO)
100
AcDbCircle
 10
53.65936645746803
 20
196.6598191279742
 30
0.0
 40
11.16080153725993
100
AcDbArc
 50
201.2686502161084
 51
213.5157104957511
  0
ARC
  5
23F
330
75
100
AcDbEntity
  8
Visible (ISO)
100
AcDbCircle
 10
58.21135613896466
 20
177.8662017422484
 30
0.0
 40
18.75000000000565
100
AcDbArc
 50
137.6503120789182
 51
139.9003120789173
  0
ARC
  5
240
330
75
100
AcDbEntity
  8
Visible (ISO)
100
AcDbCircle
 10
38.98255426147553
 20
179.9092002390118
 30
0.0
 40
11.16080153725977
100
AcDbArc
 50
64.03491366208443
 51
76.28197394172715
  0
ARC
  5
241
330
75
100
AcDbEntity
  8
Visible (ISO)
100
AcDbCircle
 10
58.21135613895442
 20
177.8662017422552
 30
0.0
 40
20.99999999999327
100
AcDbArc
 50
151.1503120789177
 51
153.4003120789181
  0
ARC
  5
242
330
75
100
AcDbEntity
  8
Visible (ISO)
100
AcDbCircle
 10
58.21135613895227
 20
177.8662017422548
 30
0.0
 40
20.99999999999142
100
AcDbArc
 50
160.1503120789176
 51
162.4003120789183
  0
ARC
  5
243
330
75
100
AcDbEntity
  8
Visible (ISO)
100
AcDbCircle
 10
58.21135613896657
 20
177.866201742251
 30
0.0
 40
21.00000000000628
100
AcDbArc
 50
169.1503120789182
 51
171.4003120789175
  0
ARC
  5
244
330
75
100
AcDbEntity
  8
Visible (ISO)
100
AcDbCircle
 10
58.21135613895285
 20
177.8662017422522
 30
0.0
 40
20.99999999999246
100
AcDbArc
 50
178.1503120789172
 51
180.4003120789184
  0
ARC
  5
245
330
75
100
AcDbEntity
  8
Visible (ISO)
100
AcDbCircle
 10
58.21135613895713
 20
177.8662017422516
 30
0.0
 40
20.99999999999671
100
AcDbArc
 50
187.1503120789179
 51
189.4003120789179
  0
ARC
  5
246
330
75
100
AcDbEntity
  8
Visible (ISO)
100
AcDbCircle
 10
58.21135613896159
 20
177.8662017422524
 30
0.0
 40
21.00000000000123
100
AcDbArc
 50
196.1503120789181
 51
198.4003120789177
  0
ARC
  5
247
330
75
100
AcDbEntity
  8
Visible (ISO)
100
AcDbCircle
 10
58.21135613896083
 20
177.8662017422524
 30
0.0
 40
21.00000000000052
100
AcDbArc
 50
205.150312078918
 51
207.4003120789179
  0
ARC
  5
248
330
75
100
AcDbEntity
  8
Visible (ISO)
100
AcDbCircle
 10
58.21135613895297
 20
177.8662017422469
 30
0.0
 40
20.99999999999093
100
AcDbArc
 50
214.1503120789178
 51
216.4003120789184
  0
ARC
  5
249
330
75
100
AcDbEntity
  8
Visible (ISO)
100
AcDbCircle
 10
58.21135613896078
 20
177.8662017422525
 30
0.0
 40
21.00000000000054
100
AcDbArc
 50
223.1503120789178
 51
225.4003120789177
  0
ARC
  5
24A
330
75
100
AcDbEntity
  8
Visible (ISO)
100
AcDbCircle
 10
58.21135613896183
 20
177.866201742254
 30
0.0
 40
21.00000000000244
100
AcDbArc
 50
232.1503120789178
 51
234.4003120789178
  0
ARC
  5
24B
330
75
100
AcDbEntity
  8
Visible (ISO)
100
AcDbCircle
 10
58.21135613896136
 20
177.8662017422538
 30
0.0
 40
21.00000000000195
100
AcDbArc
 50
241.1503120789179
 51
243.4003120789175
  0
ARC
  5
24C
330
75
100
AcDbEntity
  8
Visible (ISO)
100
AcDbCircle
 10
58.21135613896046
 20
177.8662017422523
 30
0.0
 40
21.00000000000023
100
AcDbArc
 50
250.1503120789179
 51
252.4003120789178
  0
ARC
  5
24D
330
75
100
AcDbEntity
  8
Visible (ISO)
100
AcDbCircle
 10
58.21135613896192
 20
177.866201742261
 30
0.0
 40
21.00000000000906
100
AcDbArc
 50
259.1503120789185
 51
261.4003120789174
  0
ARC
  5
24E
330
75
100
AcDbEntity
  8
Visible (ISO)
100
AcDbCircle
 10
58.21135613896031
 20
177.8662017422443
 30
0.0
 40
20.9999999999922
100
AcDbArc
 50
268.1503120789175
 51
270.4003120789181
  0
ARC
  5
24F
330
75
100
AcDbEntity
  8
Visible (ISO)
100
AcDbCircle
 10
58.21135613896136
 20
177.8662017422452
 30
0.0
 40
20.999999999993
100
AcDbArc
 50
277.1503120789175
 51
279.4003120789183
  0
ARC
  5
250
330
75
100
AcDbEntity
  8
Visible (ISO)
100
AcDbCircle
 10
58.21135613896018
 20
177.8662017422529
 30
0.0
 40
21.00000000000076
100
AcDbArc
 50
286.1503120789178
 51
288.4003120789177
  0
ARC
  5
251
330
75
100
AcDbEntity
  8
Visible (ISO)
100
AcDbCircle
 10
58.21135613896212
 20
177.8662017422486
 30
0.0
 40
20.99999999999608
100
AcDbArc
 50
295.1503120789175
 51
297.4003120789181
  0
ARC
  5
252
330
75
100
AcDbEntity
  8
Visible (ISO)
100
AcDbCircle
 10
58.21135613895609
 20
177.8662017422581
 30
0.0
 40
21.00000000000738
100
AcDbArc
 50
304.1503120789187
 51
306.4003120789175
  0
ARC
  5
253
330
75
100
AcDbEntity
  8
Visible (ISO)
100
AcDbCircle
 10
58.21135613895993
 20
177.8662017422526
 30
0.0
 40
21.00000000000069
100
AcDbArc
 50
313.1503120789179
 51
315.4003120789178
  0
ARC
  5
254
330
75
100
AcDbEntity
  8
Visible (ISO)
100
AcDbCircle
 10
58.21135613895322
 20
177.8662017422574
 30
0.0
 40
21.00000000000891
100
AcDbArc
 50
322.1503120789185
 51
324.4003120789174
  0
ARC
  5
255
330
75
100
AcDbEntity
  8
Visible (ISO)
100
AcDbCircle
 10
58.21135613895351
 20
177.8662017422557
 30
0.0
 40
21.00000000000778
100
AcDbArc
 50
331.1503120789182
 51
333.4003120789174
  0
ARC
  5
256
330
75
100
AcDbEntity
  8
Visible (ISO)
100
AcDbCircle
 10
58.21135613896824
 20
177.8662017422495
 30
0.0
 40
20.99999999999172
100
AcDbArc
 50
340.1503120789172
 51
342.4003120789182
  0
ARC
  5
257
330
75
100
AcDbEntity
  8
Visible (ISO)
100
AcDbCircle
 10
58.21135613895339
 20
177.8662017422533
 30
0.0
 40
21.0000000000071
100
AcDbArc
 50
349.1503120789184
 51
351.4003120789174
  0
ARC
  5
258
330
75
100
AcDbEntity
  8
Visible (ISO)
100
AcDbCircle
 10
58.21135613896
 20
177.8662017422521
 30
0.0
 40
21.0000000000004
100
AcDbArc
 50
358.1503120789183
 51
0.4003120789174908
  0
ARC
  5
259
330
75
100
AcDbEntity
  8
Visible (ISO)
100
AcDbCircle
 10
58.21135613896347
 20
177.8662017422525
 30
0.0
 40
20.9999999999969
100
AcDbArc
 50
7.150312078917933
 51
9.400312078917989
  0
ARC
  5
25A
330
75
100
AcDbEntity
  8
Visible (ISO)
100
AcDbCircle
 10
58.21135613896124
 20
177.8662017422524
 30
0.0
 40
20.99999999999913
100
AcDbArc
 50
16.15031207891777
 51
18.40031207891793
  0
ARC
  5
25B
330
75
100
AcDbEntity
  8
Visible (ISO)
100
AcDbCircle
 10
58.21135613896079
 20
177.8662017422523
 30
0.0
 40
20.99999999999956
100
AcDbArc
 50
25.15031207891819
 51
27.40031207891798
  0
ARC
  5
25C
330
75
100
AcDbEntity
  8
Visible (ISO)
100
AcDbCircle
 10
58.21135613896538
 20
177.8662017422556
 30
0.0
 40
20.99999999999386
100
AcDbArc
 50
34.15031207891762
 51
36.40031207891821
  0
ARC
  5
25D
330
75
100
AcDbEntity
  8
Visible (ISO)
100
AcDbCircle
 10
58.21135613895974
 20
177.8662017422515
 30
0.0
 40
21.00000000000092
100
AcDbArc
 50
43.15031207891788
 51
45.40031207891774
  0
ARC
  5
25E
330
75
100
AcDbEntity
  8
Visible (ISO)
100
AcDbCircle
 10
58.21135613895754
 20
177.8662017422483
 30
0.0
 40
21.00000000000474
100
AcDbArc
 50
52.15031207891808
 51
54.40031207891745
  0
ARC
  5
25F
330
75
100
AcDbEntity
  8
Visible (ISO)
100
AcDbCircle
 10
58.21135613896342
 20
177.8662017422578
 30
0.0
 40
20.99999999999354
100
AcDbArc
 50
61.15031207891771
 51
63.40031207891819
  0
ARC
  5
260
330
75
100
AcDbEntity
  8
Visible (ISO)
100
AcDbCircle
 10
58.21135613896257
 20
177.8662017422585
 30
0.0
 40
20.9999999999932
100
AcDbArc
 50
70.15031207891742
 51
72.40031207891814
  0
ARC
  5
261
330
75
100
AcDbEntity
  8
Visible (ISO)
100
AcDbCircle
 10
58.2113561389605
 20
177.8662017422529
 30
0.0
 40
20.99999999999925
100
AcDbArc
 50
79.15031207891772
 51
81.40031207891778
  0
ARC
  5
262
330
75
100
AcDbEntity
  8
Visible (ISO)
100
AcDbCircle
 10
58.21135613896038
 20
177.8662017422517
 30
0.0
 40
21.00000000000038
100
AcDbArc
 50
88.1503120789182
 51
90.40031207891775
  0
ARC
  5
263
330
75
100
AcDbEntity
  8
Visible (ISO)
100
AcDbCircle
 10
58.21135613896014
 20
177.866201742254
 30
0.0
 40
20.99999999999807
100
AcDbArc
 50
97.15031207891762
 51
99.40031207891802
  0
ARC
  5
264
330
75
100
AcDbEntity
  8
Visible (ISO)
100
AcDbCircle
 10
58.21135613895993
 20
177.8662017422535
 30
0.0
 40
20.99999999999853
100
AcDbArc
 50
106.1503120789178
 51
108.4003120789178
  0
ARC
  5
265
330
75
100
AcDbEntity
  8
Visible (ISO)
100
AcDbCircle
 10
58.21135613895901
 20
177.8662017422549
 30
0.0
 40
20.99999999999686
100
AcDbArc
 50
115.1503120789176
 51
117.400312078918
  0
ARC
  5
266
330
75
100
AcDbEntity
  8
Visible (ISO)
100
AcDbCircle
 10
58.2113561389646
 20
177.8662017422463
 30
0.0
 40
21.0000000000072
100
AcDbArc
 50
124.1503120789187
 51
126.4003120789176
  0
ARC
  5
267
330
75
100
AcDbEntity
  8
Visible (ISO)
100
AcDbCircle
 10
58.21135613896086
 20
177.8662017422516
 30
0.0
 40
21.00000000000069
100
AcDbArc
 50
133.1503120789178
 51
135.4003120789178
  0
ARC
  5
268
330
75
100
AcDbEntity
  8
Visible (ISO)
100
AcDbCircle
 10
58.21135613896522
 20
177.8662017422485
 30
0.0
 40
21.00000000000603
100
AcDbArc
 50
142.1503120789184
 51
144.4003120789175
  0
LINE
  5
269
330
75
100
AcDbEntity
  8
Visible (ISO)
100
AcDbLine
 10
212.2113561389601
 20
270.2578291155357
 30
0.0
 11
212.2113561389602
 21
151.7578291155356
 31
0.0
  0
LINE
  5
26A
330
75
100
AcDbEntity
  8
Visible (ISO)
100
AcDbLine
 10
212.2113561389602
 20
151.7578291155356
 30
0.0
 11
37.21135613896024
 21
151.7578291155355
 31
0.0
  0
LINE
  5
26B
330
75
100
AcDbEntity
  8
Visible (ISO)
100
AcDbLine
 10
37.21135613896023
 20
151.7578291155355
 30
0.0
 11
37.21135613896012
 21
270.2578291155355
 31
0.0
  0
LINE
  5
26C
330
75
100
AcDbEntity
  8
Visible (ISO)
100
AcDbLine
 10
37.21135613896012
 20
270.2578291155355
 30
0.0
 11
212.2113561389601
 21
270.2578291155357
 31
0.0
  0
LINE
  5
26D
330
75
100
AcDbEntity
  8
Visible (ISO)
100
AcDbLine
 10
29.71135613896023
 20
144.2578291155355
 30
0.0
 11
29.71135613896013
 21
277.7578291155355
 31
0.0
  0
LINE
  5
26E
330
75
100
AcDbEntity
  8
Visible (ISO)
100
AcDbLine
 10
29.71135613896012
 20
277.7578291155355
 30
0.0
 11
219.7113561389601
 21
277.7578291155357
 31
0.0
  0
LINE
  5
26F
330
75
100
AcDbEntity
  8
Visible (ISO)
100
AcDbLine
 10
219.7113561389601
 20
277.7578291155357
 30
0.0
 11
219.7113561389603
 21
144.2578291155356
 31
0.0
  0
LINE
  5
270
330
75
100
AcDbEntity
  8
Visible (ISO)
100
AcDbLine
 10
219.7113561389603
 20
144.2578291155356
 30
0.0
 11
29.71135613896024
 21
144.2578291155355
 31
0.0
  0
ENDSEC
  0
SECTION
  2
OBJECTS
  0
DICTIONARY
  5
C
330
0
100
AcDbDictionary
281
     1
  3
ACAD_COLOR
350
6B
  3
ACAD_GROUP
350
D
  3
ACAD_LAYOUT
350
6A
  3
ACAD_MATERIAL
350
10
  3
ACAD_MLEADERSTYLE
350
6E
  3
ACAD_MLINESTYLE
350
67
  3
ACAD_PLOTSETTINGS
350
69
  3
ACAD_PLOTSTYLENAME
350
E
  3
ACAD_SCALELIST
350
3A
  3
ACAD_TABLESTYLE
350
6C
  3
ACAD_VISUALSTYLE
350
29
  3
ACDB_RECOMPOSE_DATA
350
27D
  3
AcDbVariableDictionary
350
271
  3
DWGPROPS
350
27E
  0
DICTIONARY
  5
6B
102
{ACAD_REACTORS
330
C
102
}
330
C
100
AcDbDictionary
281
     1
  0
DICTIONARY
  5
D
102
{ACAD_REACTORS
330
C
102
}
330
C
100
AcDbDictionary
281
     1
  0
DICTIONARY
  5
6A
102
{ACAD_REACTORS
330
C
102
}
330
C
100
AcDbDictionary
281
     1
  3
Layout1
350
74
  3
Layout2
350
7C
  3
Model
350
78
  0
DICTIONARY
  5
10
102
{ACAD_REACTORS
330
C
102
}
330
C
100
AcDbDictionary
281
     1
  3
ByBlock
350
19
  3
ByLayer
350
11
  3
Global
350
21
  0
DICTIONARY
  5
6E
102
{ACAD_REACTORS
330
C
102
}
330
C
100
AcDbDictionary
281
     1
  3
Standard
350
6F
  0
DICTIONARY
  5
67
102
{ACAD_REACTORS
330
C
102
}
330
C
100
AcDbDictionary
281
     1
  3
Standard
350
68
  0
DICTIONARY
  5
69
102
{ACAD_REACTORS
330
C
102
}
330
C
100
AcDbDictionary
281
     1
  0
ACDBDICTIONARYWDFLT
  5
E
102
{ACAD_REACTORS
330
C
102
}
330
C
100
AcDbDictionary
281
     1
  3
Normal
350
F
100
AcDbDictionaryWithDefault
340
F
  0
DICTIONARY
  5
3A
102
{ACAD_REACTORS
330
C
102
}
330
C
100
AcDbDictionary
281
     1
  3
A0
350
3B
  3
A1
350
3C
  3
A2
350
3D
  3
A3
350
3E
  3
A4
350
3F
  3
A5
350
40
  3
A6
350
41
  3
A7
350
42
  3
A8
350
43
  3
A9
350
44
  3
B0
350
45
  3
B1
350
46
  3
B2
350
47
  3
B3
350
48
  3
B4
350
49
  3
B5
350
4A
  3
B6
350
4B
  3
B7
350
4C
  3
B8
350
4D
  3
B9
350
4E
  3
C0
350
4F
  3
C1
350
50
  3
C2
350
51
  3
C3
350
52
  3
C4
350
53
  3
C5
350
54
  3
C6
350
55
  3
C7
350
56
  3
C8
350
57
  3
C9
350
58
  3
D0
350
59
  3
D1
350
5A
  3
D2
350
5B
  0
DICTIONARY
  5
6C
102
{ACAD_REACTORS
330
C
102
}
330
C
100
AcDbDictionary
281
     1
  3
Standard
350
6D
  0
DICTIONARY
  5
29
102
{ACAD_REACTORS
330
C
102
}
330
C
100
AcDbDictionary
281
     1
  3
2dWireframe
350
2F
  3
3D Hidden
350
31
  3
3dWireframe
350
30
  3
Basic
350
2E
  3
Brighten
350
35
  3
ColorChange
350
39
  3
Conceptual
350
32
  3
Dim
350
34
  3
Facepattern
350
38
  3
Flat
350
2A
  3
FlatWithEdges
350
2B
  3
Gouraud
350
2C
  3
GouraudWithEdges
350
2D
  3
Linepattern
350
37
  3
Realistic
350
33
  3
Thicken
350
36
  0
XRECORD
  5
27D
102
{ACAD_REACTORS
330
C
102
}
330
C
100
AcDbXrecord
280
     1
 90
        1
330
6D
  0
DICTIONARY
  5
271
102
{ACAD_REACTORS
330
C
102
}
330
C
100
AcDbDictionary
281
     1
  3
CANNOSCALE
350
275
  3
CMLEADERSTYLE
350
273
  3
CTABLESTYLE
350
272
  3
DIMASSOC
350
27A
  3
HIDETEXT
350
279
  3
INDEXCTL
350
278
  3
LIGHTINGUNITS
350
276
  3
MSLTSCALE
350
274
  3
SORTENTS
350
277
  0
XRECORD
  5
27E
102
{ACAD_REACTORS
330
C
102
}
330
C
100
AcDbXrecord
280
     1
  1
DWGPROPS COOKIE
  2

  3

  4
i_adkins
  6

  7

  8

  9

300
Manager=
301
Company=
302
Category=
303
Part Number=
304
Description=
305
Project=
306
Designer=i_adkins
307
Engineer=
308
Authority=
309
Cost Center=
 40
0.0000187731481481
 41
2454670.452058391
 42
2454670.452058391
  1

 90
       16
300
Vendor=
300
User Status=
300
Design Status=WorkInProgress
300
Checked by=
300
Engr Approved by=
300
Mfg Approved by=
  0
LAYOUT
  5
74
102
{ACAD_XDICTIONARY
360
283
102
}
102
{ACAD_REACTORS
330
6A
102
}
330
6A
100
AcDbPlotSettings
  1

  2

  4

  6

 40
0.0
 41
0.0
 42
0.0
 43
0.0
 44
0.0
 45
0.0
 46
0.0
 47
0.0
 48
0.0
 49
0.0
140
0.0
141
0.0
142
1.0
143
1.0
 70
   688
 72
     0
 73
     0
 74
     5
  7

 75
    16
147
1.0
148
0.0
149
0.0
100
AcDbLayout
  1
Layout1
 70
     1
 71
     1
 10
0.0
 20
0.0
 11
12.0
 21
9.0
 12
0.0
 22
0.0
 32
0.0
 14
0.0
 24
0.0
 34
0.0
 15
0.0
 25
0.0
 35
0.0
146
0.0
 13
0.0
 23
0.0
 33
0.0
 16
1.0
 26
0.0
 36
0.0
 17
0.0
 27
1.0
 37
0.0
 76
     0
330
71
  0
LAYOUT
  5
7C
102
{ACAD_XDICTIONARY
360
287
102
}
102
{ACAD_REACTORS
330
6A
102
}
330
6A
100
AcDbPlotSettings
  1

  2

  4

  6

 40
0.0
 41
0.0
 42
0.0
 43
0.0
 44
0.0
 45
0.0
 46
0.0
 47
0.0
 48
0.0
 49
0.0
140
0.0
141
0.0
142
1.0
143
1.0
 70
   688
 72
     0
 73
     0
 74
     5
  7

 75
    16
147
1.0
148
0.0
149
0.0
100
AcDbLayout
  1
Layout2
 70
     1
 71
     2
 10
0.0
 20
0.0
 11
12.0
 21
9.0
 12
0.0
 22
0.0
 32
0.0
 14
0.0
 24
0.0
 34
0.0
 15
0.0
 25
0.0
 35
0.0
146
0.0
 13
0.0
 23
0.0
 33
0.0
 16
1.0
 26
0.0
 36
0.0
 17
0.0
 27
1.0
 37
0.0
 76
     0
330
79
  0
LAYOUT
  5
78
102
{ACAD_XDICTIONARY
360
285
102
}
102
{ACAD_REACTORS
330
6A
102
}
330
6A
100
AcDbPlotSettings
  1

  2

  4

  6

 40
0.0
 41
0.0
 42
0.0
 43
0.0
 44
0.0
 45
0.0
 46
0.0
 47
0.0
 48
0.0
 49
0.0
140
0.0
141
0.0
142
1.0
143
1.0
 70
  1712
 72
     0
 73
     0
 74
     0
  7

 75
     0
147
1.0
148
0.0
149
0.0
100
AcDbLayout
  1
Model
 70
     1
 71
     0
 10
0.0
 20
0.0
 11
12.0
 21
9.0
 12
0.0
 22
0.0
 32
0.0
 14
0.0
 24
0.0
 34
0.0
 15
0.0
 25
0.0
 35
0.0
146
0.0
 13
0.0
 23
0.0
 33
0.0
 16
1.0
 26
0.0
 36
0.0
 17
0.0
 27
1.0
 37
0.0
 76
     0
330
75
  0
MATERIAL
  5
19
102
{ACAD_XDICTIONARY
360
1A
102
}
102
{ACAD_REACTORS
330
10
102
}
330
10
100
AcDbMaterial
  1
ByBlock
 72
     0
 43
0.0208333333333333
 43
0.0
 43
0.0
 43
0.0
 43
0.0
 43
0.0208333333333333
 43
0.0
 43
0.0
 43
0.0
 43
0.0
 43
1.0
 43
0.0
 43
0.0
 43
0.0
 43
0.0
 43
1.0
 77
     0
 47
0.0208333333333333
 47
0.0
 47
0.0
 47
0.0
 47
0.0
 47
0.0208333333333333
 47
0.0
 47
0.0
 47
0.0
 47
0.0
 47
1.0
 47
0.0
 47
0.0
 47
0.0
 47
0.0
 47
1.0
171
     0
 49
0.0208333333333333
 49
0.0
 49
0.0
 49
0.0
 49
0.0
 49
0.0208333333333333
 49
0.0
 49
0.0
 49
0.0
 49
0.0
 49
1.0
 49
0.0
 49
0.0
 49
0.0
 49
0.0
 49
1.0
175
     0
142
0.0208333333333333
142
0.0
142
0.0
142
0.0
142
0.0
142
0.0208333333333333
142
0.0
142
0.0
142
0.0
142
0.0
142
1.0
142
0.0
142
0.0
142
0.0
142
0.0
142
1.0
179
     0
144
0.0208333333333333
144
0.0
144
0.0
144
0.0
144
0.0
144
0.0208333333333333
144
0.0
144
0.0
144
0.0
144
0.0
144
1.0
144
0.0
144
0.0
144
0.0
144
0.0
144
1.0
147
0.0208333333333333
147
0.0
147
0.0
147
0.0
147
0.0
147
0.0208333333333333
147
0.0
147
0.0
147
0.0
147
0.0
147
1.0
147
0.0
147
0.0
147
0.0
147
0.0
147
1.0
  0
MATERIAL
  5
11
102
{ACAD_XDICTIONARY
360
12
102
}
102
{ACAD_REACTORS
330
10
102
}
330
10
100
AcDbMaterial
  1
ByLayer
 72
     0
 43
0.0208333333333333
 43
0.0
 43
0.0
 43
0.0
 43
0.0
 43
0.0208333333333333
 43
0.0
 43
0.0
 43
0.0
 43
0.0
 43
1.0
 43
0.0
 43
0.0
 43
0.0
 43
0.0
 43
1.0
 77
     0
 47
0.0208333333333333
 47
0.0
 47
0.0
 47
0.0
 47
0.0
 47
0.0208333333333333
 47
0.0
 47
0.0
 47
0.0
 47
0.0
 47
1.0
 47
0.0
 47
0.0
 47
0.0
 47
0.0
 47
1.0
171
     0
 49
0.0208333333333333
 49
0.0
 49
0.0
 49
0.0
 49
0.0
 49
0.0208333333333333
 49
0.0
 49
0.0
 49
0.0
 49
0.0
 49
1.0
 49
0.0
 49
0.0
 49
0.0
 49
0.0
 49
1.0
175
     0
142
0.0208333333333333
142
0.0
142
0.0
142
0.0
142
0.0
142
0.0208333333333333
142
0.0
142
0.0
142
0.0
142
0.0
142
1.0
142
0.0
142
0.0
142
0.0
142
0.0
142
1.0
179
     0
144
0.0208333333333333
144
0.0
144
0.0
144
0.0
144
0.0
144
0.0208333333333333
144
0.0
144
0.0
144
0.0
144
0.0
144
1.0
144
0.0
144
0.0
144
0.0
144
0.0
144
1.0
147
0.0208333333333333
147
0.0
147
0.0
147
0.0
147
0.0
147
0.0208333333333333
147
0.0
147
0.0
147
0.0
147
0.0
147
1.0
147
0.0
147
0.0
147
0.0
147
0.0
147
1.0
  0
MATERIAL
  5
21
102
{ACAD_XDICTIONARY
360
22
102
}
102
{ACAD_REACTORS
330
10
102
}
330
10
100
AcDbMaterial
  1
Global
 72
     0
 43
0.0208333333333333
 43
0.0
 43
0.0
 43
0.0
 43
0.0
 43
0.0208333333333333
 43
0.0
 43
0.0
 43
0.0
 43
0.0
 43
1.0
 43
0.0
 43
0.0
 43
0.0
 43
0.0
 43
1.0
 77
     0
 47
0.0208333333333333
 47
0.0
 47
0.0
 47
0.0
 47
0.0
 47
0.0208333333333333
 47
0.0
 47
0.0
 47
0.0
 47
0.0
 47
1.0
 47
0.0
 47
0.0
 47
0.0
 47
0.0
 47
1.0
171
     0
 49
0.0208333333333333
 49
0.0
 49
0.0
 49
0.0
 49
0.0
 49
0.0208333333333333
 49
0.0
 49
0.0
 49
0.0
 49
0.0
 49
1.0
 49
0.0
 49
0.0
 49
0.0
 49
0.0
 49
1.0
175
     0
142
0.0208333333333333
142
0.0
142
0.0
142
0.0
142
0.0
142
0.0208333333333333
142
0.0
142
0.0
142
0.0
142
0.0
142
1.0
142
0.0
142
0.0
142
0.0
142
0.0
142
1.0
179
     0
144
0.0208333333333333
144
0.0
144
0.0
144
0.0
144
0.0
144
0.0208333333333333
144
0.0
144
0.0
144
0.0
144
0.0
144
1.0
144
0.0
144
0.0
144
0.0
144
0.0
144
1.0
147
0.0208333333333333
147
0.0
147
0.0
147
0.0
147
0.0
147
0.0208333333333333
147
0.0
147
0.0
147
0.0
147
0.0
147
1.0
147
0.0
147
0.0
147
0.0
147
0.0
147
1.0
  0
MLEADERSTYLE
  5
6F
102
{ACAD_REACTORS
330
6E
102
}
330
6E
100
AcDbMLeaderStyle
170
     2
171
     1
172
     0
 90
        2
 40
0.0
 41
0.0
173
     1
 91
-1056964608
340
63
 92
       -2
290
     1
 42
0.09
291
     1
 43
0.36
  3
Standard
 44
0.18
300

342
5D
174
     1
178
     6
175
     1
176
     0
 93
-1056964608
 45
0.18
292
     0
297
     0
 46
0.18
 94
-1056964608
 47
1.0
 49
1.0
140
1.0
293
     1
141
0.0
294
     1
177
     0
142
1.0
295
     0
296
     0
143
0.125
1001
ACAD_MLEADERVER
1070
     2
  0
MLINESTYLE
  5
68
102
{ACAD_REACTORS
330
67
102
}
330
67
100
AcDbMlineStyle
  2
STANDARD
 70
     0
  3

 62
   256
 51
90.0
 52
90.0
 71
     2
 49
0.5
 62
   256
  6
BYLAYER
 49
-0.5
 62
   256
  6
BYLAYER
  0
ACDBPLACEHOLDER
  5
F
102
{ACAD_REACTORS
330
E
102
}
330
E
  0
SCALE
  5
3B
102
{ACAD_REACTORS
330
3A
102
}
330
3A
100
AcDbScale
 70
     0
300
1:1
140
1.0
141
1.0
290
     1
  0
SCALE
  5
3C
102
{ACAD_REACTORS
330
3A
102
}
330
3A
100
AcDbScale
 70
     0
300
1:2
140
1.0
141
2.0
290
     0
  0
SCALE
  5
3D
102
{ACAD_REACTORS
330
3A
102
}
330
3A
100
AcDbScale
 70
     0
300
1:4
140
1.0
141
4.0
290
     0
  0
SCALE
  5
3E
102
{ACAD_REACTORS
330
3A
102
}
330
3A
100
AcDbScale
 70
     0
300
1:5
140
1.0
141
5.0
290
     0
  0
SCALE
  5
3F
102
{ACAD_REACTORS
330
3A
102
}
330
3A
100
AcDbScale
 70
     0
300
1:8
140
1.0
141
8.0
290
     0
  0
SCALE
  5
40
102
{ACAD_REACTORS
330
3A
102
}
330
3A
100
AcDbScale
 70
     0
300
1:10
140
1.0
141
10.0
290
     0
  0
SCALE
  5
41
102
{ACAD_REACTORS
330
3A
102
}
330
3A
100
AcDbScale
 70
     0
300
1:16
140
1.0
141
16.0
290
     0
  0
SCALE
  5
42
102
{ACAD_REACTORS
330
3A
102
}
330
3A
100
AcDbScale
 70
     0
300
1:20
140
1.0
141
20.0
290
     0
  0
SCALE
  5
43
102
{ACAD_REACTORS
330
3A
102
}
330
3A
100
AcDbScale
 70
     0
300
1:30
140
1.0
141
30.0
290
     0
  0
SCALE
  5
44
102
{ACAD_REACTORS
330
3A
102
}
330
3A
100
AcDbScale
 70
     0
300
1:40
140
1.0
141
40.0
290
     0
  0
SCALE
  5
45
102
{ACAD_REACTORS
330
3A
102
}
330
3A
100
AcDbScale
 70
     0
300
1:50
140
1.0
141
50.0
290
     0
  0
SCALE
  5
46
102
{ACAD_REACTORS
330
3A
102
}
330
3A
100
AcDbScale
 70
     0
300
1:100
140
1.0
141
100.0
290
     0
  0
SCALE
  5
47
102
{ACAD_REACTORS
330
3A
102
}
330
3A
100
AcDbScale
 70
     0
300
2:1
140
2.0
141
1.0
290
     0
  0
SCALE
  5
48
102
{ACAD_REACTORS
330
3A
102
}
330
3A
100
AcDbScale
 70
     0
300
4:1
140
4.0
141
1.0
290
     0
  0
SCALE
  5
49
102
{ACAD_REACTORS
330
3A
102
}
330
3A
100
AcDbScale
 70
     0
300
8:1
140
8.0
141
1.0
290
     0
  0
SCALE
  5
4A
102
{ACAD_REACTORS
330
3A
102
}
330
3A
100
AcDbScale
 70
     0
300
10:1
140
10.0
141
1.0
290
     0
  0
SCALE
  5
4B
102
{ACAD_REACTORS
330
3A
102
}
330
3A
100
AcDbScale
 70
     0
300
100:1
140
100.0
141
1.0
290
     0
  0
SCALE
  5
4C
102
{ACAD_REACTORS
330
3A
102
}
330
3A
100
AcDbScale
 70
     0
300
1/128" = 1'-0"
140
0.0078125
141
12.0
290
     0
  0
SCALE
  5
4D
102
{ACAD_REACTORS
330
3A
102
}
330
3A
100
AcDbScale
 70
     0
300
1/64" = 1'-0"
140
0.015625
141
12.0
290
     0
  0
SCALE
  5
4E
102
{ACAD_REACTORS
330
3A
102
}
330
3A
100
AcDbScale
 70
     0
300
1/32" = 1'-0"
140
0.03125
141
12.0
290
     0
  0
SCALE
  5
4F
102
{ACAD_REACTORS
330
3A
102
}
330
3A
100
AcDbScale
 70
     0
300
1/16" = 1'-0"
140
0.0625
141
12.0
290
     0
  0
SCALE
  5
50
102
{ACAD_REACTORS
330
3A
102
}
330
3A
100
AcDbScale
 70
     0
300
3/32" = 1'-0"
140
0.09375
141
12.0
290
     0
  0
SCALE
  5
51
102
{ACAD_REACTORS
330
3A
102
}
330
3A
100
AcDbScale
 70
     0
300
1/8" = 1'-0"
140
0.125
141
12.0
290
     0
  0
SCALE
  5
52
102
{ACAD_REACTORS
330
3A
102
}
330
3A
100
AcDbScale
 70
     0
300
3/16" = 1'-0"
140
0.1875
141
12.0
290
     0
  0
SCALE
  5
53
102
{ACAD_REACTORS
330
3A
102
}
330
3A
100
AcDbScale
 70
     0
300
1/4" = 1'-0"
140
0.25
141
12.0
290
     0
  0
SCALE
  5
54
102
{ACAD_REACTORS
330
3A
102
}
330
3A
100
AcDbScale
 70
     0
300
3/8" = 1'-0"
140
0.375
141
12.0
290
     0
  0
SCALE
  5
55
102
{ACAD_REACTORS
330
3A
102
}
330
3A
100
AcDbScale
 70
     0
300
1/2" = 1'-0"
140
0.5
141
12.0
290
     0
  0
SCALE
  5
56
102
{ACAD_REACTORS
330
3A
102
}
330
3A
100
AcDbScale
 70
     0
300
3/4" = 1'-0"
140
0.75
141
12.0
290
     0
  0
SCALE
  5
57
102
{ACAD_REACTORS
330
3A
102
}
330
3A
100
AcDbScale
 70
     0
300
1" = 1'-0"
140
1.0
141
12.0
290
     0
  0
SCALE
  5
58
102
{ACAD_REACTORS
330
3A
102
}
330
3A
100
AcDbScale
 70
     0
300
1-1/2" = 1'-0"
140
1.5
141
12.0
290
     0
  0
SCALE
  5
59
102
{ACAD_REACTORS
330
3A
102
}
330
3A
100
AcDbScale
 70
     0
300
3" = 1'-0"
140
3.0
141
12.0
290
     0
  0
SCALE
  5
5A
102
{ACAD_REACTORS
330
3A
102
}
330
3A
100
AcDbScale
 70
     0
300
6" = 1'-0"
140
6.0
141
12.0
290
     0
  0
SCALE
  5
5B
102
{ACAD_REACTORS
330
3A
102
}
330
3A
100
AcDbScale
 70
     0
300
1'-0" = 1'-0"
140
12.0
141
12.0
290
     0
  0
TABLESTYLE
  5
6D
102
{ACAD_XDICTIONARY
360
27B
102
}
102
{ACAD_REACTORS
330
6C
102
}
330
6C
100
AcDbTableStyle
  3
Standard
 70
     0
 71
     0
 40
0.06
 41
0.06
280
     0
281
     0
  7
Standard
140
0.18
170
     2
 62
     0
 63
     7
283
     0
274
    -2
284
     1
 64
     0
275
    -2
285
     1
 65
     0
276
    -2
286
     1
 66
     0
277
    -2
287
     1
 67
     0
278
    -2
288
     1
 68
     0
279
    -2
289
     1
 69
     0
  7
Standard
140
0.25
170
     5
 62
     0
 63
     7
283
     0
274
    -2
284
     1
 64
     0
275
    -2
285
     1
 65
     0
276
    -2
286
     1
 66
     0
277
    -2
287
     1
 67
     0
278
    -2
288
     1
 68
     0
279
    -2
289
     1
 69
     0
  7
Standard
140
0.18
170
     5
 62
     0
 63
     7
283
     0
274
    -2
284
     1
 64
     0
275
    -2
285
     1
 65
     0
276
    -2
286
     1
 66
     0
277
    -2
287
     1
 67
     0
278
    -2
288
     1
 68
     0
279
    -2
289
     1
 69
     0
  0
VISUALSTYLE
  5
2F
102
{ACAD_REACTORS
330
29
102
}
330
29
100
AcDbVisualStyle
  2
2dWireframe
 70
     4
 71
     0
 72
     2
 73
     0
 90
        0
 40
-0.6
 41
-30.0
 62
     5
 63
     7
 74
     1
 91
        4
 64
     7
 65
   257
 75
     1
175
     1
 42
1.0
 92
        0
 66
   257
 43
1.0
 76
     1
 77
     6
 78
     2
 67
     7
 79
     5
170
     0
171
     0
290
     0
174
     0
 93
        1
 44
0.0
173
     0
291
     0
 45
0.0
1001
ACAD
1000
AcDbSavedByObjectVersion
1070
     0
  0
VISUALSTYLE
  5
31
102
{ACAD_REACTORS
330
29
102
}
330
29
100
AcDbVisualStyle
  2
3D Hidden
 70
     6
 71
     1
 72
     2
 73
     2
 90
        0
 40
-0.6
 41
-30.0
 62
     5
 63
     7
 74
     2
 91
        2
 64
     7
 65
   257
 75
     2
175
     1
 42
40.0
 92
        0
 66
   257
 43
1.0
 76
     1
 77
     6
 78
     2
 67
     7
 79
     3
170
     0
171
     0
290
     0
174
     0
 93
        1
 44
0.0
173
     0
291
     0
 45
0.0
1001
ACAD
1000
AcDbSavedByObjectVersion
1070
     0
  0
VISUALSTYLE
  5
30
102
{ACAD_REACTORS
330
29
102
}
330
29
100
AcDbVisualStyle
  2
3dWireframe
 70
     5
 71
     0
 72
     2
 73
     0
 90
        0
 40
-0.6
 41
-30.0
 62
     5
 63
     7
 74
     1
 91
        4
 64
     7
 65
   257
 75
     1
175
     1
 42
1.0
 92
        0
 66
   257
 43
1.0
 76
     1
 77
     6
 78
     2
 67
     7
 79
     5
170
     0
171
     0
290
     0
174
     0
 93
        1
 44
0.0
173
     0
291
     0
 45
0.0
1001
ACAD
1000
AcDbSavedByObjectVersion
1070
     0
  0
VISUALSTYLE
  5
2E
102
{ACAD_REACTORS
330
29
102
}
330
29
100
AcDbVisualStyle
  2
Basic
 70
     7
 71
     1
 72
     0
 73
     1
 90
        0
 40
-0.6
 41
-30.0
 62
     5
 63
     7
 74
     0
 91
        4
 64
     7
 65
   257
 75
     1
175
     1
 42
1.0
 92
        8
 66
     7
 43
1.0
 76
     1
 77
     6
 78
     2
 67
     7
 79
     5
170
     0
171
     0
290
     0
174
     0
 93
        1
 44
0.0
173
     0
291
     1
 45
0.0
1001
ACAD
1000
AcDbSavedByObjectVersion
1070
     0
  0
VISUALSTYLE
  5
35
102
{ACAD_REACTORS
330
29
102
}
330
29
100
AcDbVisualStyle
  2
Brighten
 70
    12
 71
     2
 72
     2
 73
     0
 90
        0
 40
-0.6
 41
-30.0
 62
     5
 63
     7
 74
     1
 91
        4
 64
     7
 65
   257
 75
     1
175
     1
 42
1.0
 92
        8
 66
     7
 43
1.0
 76
     1
 77
     6
 78
     2
 67
     7
 79
     5
170
     0
171
     0
290
     0
174
     0
 93
        1
 44
50.0
173
     0
291
     1
 45
0.0
1001
ACAD
1000
AcDbSavedByObjectVersion
1070
     0
  0
VISUALSTYLE
  5
39
102
{ACAD_REACTORS
330
29
102
}
330
29
100
AcDbVisualStyle
  2
ColorChange
 70
    16
 71
     2
 72
     2
 73
     3
 90
        0
 40
-0.6
 41
-30.0
 62
     5
 63
     8
 74
     1
 91
        4
 64
     7
 65
   257
 75
     1
175
     1
 42
1.0
 92
        8
 66
     8
 43
1.0
 76
     1
 77
     6
 78
     2
 67
     7
 79
     5
170
     0
171
     0
290
     0
174
     0
 93
        1
 44
0.0
173
     0
291
     1
 45
0.0
1001
ACAD
1000
AcDbSavedByObjectVersion
1070
     0
  0
VISUALSTYLE
  5
32
102
{ACAD_REACTORS
330
29
102
}
330
29
100
AcDbVisualStyle
  2
Conceptual
 70
     9
 71
     3
 72
     2
 73
     0
 90
        0
 40
-0.6
 41
-30.0
 62
     5
 63
     7
 74
     2
 91
        2
 64
     7
 65
   257
 75
     1
175
     1
 42
40.0
 92
        8
 66
     7
 43
1.0
 76
     1
 77
     6
 78
     2
 67
     7
 79
     3
170
     0
171
     0
290
     0
174
     0
 93
        1
 44
0.0
173
     0
291
     0
 45
0.0
1001
ACAD
1000
AcDbSavedByObjectVersion
1070
     0
  0
VISUALSTYLE
  5
34
102
{ACAD_REACTORS
330
29
102
}
330
29
100
AcDbVisualStyle
  2
Dim
 70
    11
 71
     2
 72
     2
 73
     0
 90
        0
 40
-0.6
 41
-30.0
 62
     5
 63
     7
 74
     1
 91
        4
 64
     7
 65
   257
 75
     1
175
     1
 42
1.0
 92
        8
 66
     7
 43
1.0
 76
     1
 77
     6
 78
     2
 67
     7
 79
     5
170
     0
171
     0
290
     0
174
     0
 93
        1
 44
-50.0
173
     0
291
     1
 45
0.0
1001
ACAD
1000
AcDbSavedByObjectVersion
1070
     0
  0
VISUALSTYLE
  5
38
102
{ACAD_REACTORS
330
29
102
}
330
29
100
AcDbVisualStyle
  2
Facepattern
 70
    15
 71
     2
 72
     2
 73
     0
 90
        0
 40
-0.6
 41
-30.0
 62
     5
 63
     7
 74
     1
 91
        4
 64
     7
 65
   257
 75
     1
175
     1
 42
1.0
 92
        8
 66
     7
 43
1.0
 76
     1
 77
     6
 78
     2
 67
     7
 79
     5
170
     0
171
     0
290
     0
174
     0
 93
        1
 44
0.0
173
     0
291
     1
 45
0.0
1001
ACAD
1000
AcDbSavedByObjectVersion
1070
     0
  0
VISUALSTYLE
  5
2A
102
{ACAD_REACTORS
330
29
102
}
330
29
100
AcDbVisualStyle
  2
Flat
 70
     0
 71
     2
 72
     1
 73
     1
 90
        2
 40
-0.6
 41
30.0
 62
     5
 63
     7
 74
     0
 91
        4
 64
     7
 65
   257
 75
     1
175
     1
 42
1.0
 92
        8
 66
     7
 43
1.0
 76
     1
 77
     6
 78
     2
 67
     7
 79
     5
170
     0
171
     0
290
     0
174
     0
 93
       13
 44
0.0
173
     0
291
     1
 45
0.0
1001
ACAD
1000
AcDbSavedByObjectVersion
1070
     0
  0
VISUALSTYLE
  5
2B
102
{ACAD_REACTORS
330
29
102
}
330
29
100
AcDbVisualStyle
  2
FlatWithEdges
 70
     1
 71
     2
 72
     1
 73
     1
 90
        2
 40
-0.6
 41
30.0
 62
     5
 63
     7
 74
     1
 91
        4
 64
     7
 65
   257
 75
     1
175
     1
 42
1.0
 92
        0
 66
   257
 43
1.0
 76
     1
 77
     6
 78
     2
 67
     7
 79
     5
170
     0
171
     0
290
     0
174
     0
 93
       13
 44
0.0
173
     0
291
     1
 45
0.0
1001
ACAD
1000
AcDbSavedByObjectVersion
1070
     0
  0
VISUALSTYLE
  5
2C
102
{ACAD_REACTORS
330
29
102
}
330
29
100
AcDbVisualStyle
  2
Gouraud
 70
     2
 71
     2
 72
     2
 73
     1
 90
        2
 40
-0.6
 41
30.0
 62
     5
 63
     7
 74
     0
 91
        4
 64
     7
 65
   257
 75
     1
175
     1
 42
1.0
 92
        0
 66
     7
 43
1.0
 76
     1
 77
     6
 78
     2
 67
     7
 79
     5
170
     0
171
     0
290
     0
174
     0
 93
       13
 44
0.0
173
     0
291
     1
 45
0.0
1001
ACAD
1000
AcDbSavedByObjectVersion
1070
     0
  0
VISUALSTYLE
  5
2D
102
{ACAD_REACTORS
330
29
102
}
330
29
100
AcDbVisualStyle
  2
GouraudWithEdges
 70
     3
 71
     2
 72
     2
 73
     1
 90
        2
 40
-0.6
 41
30.0
 62
     5
 63
     7
 74
     1
 91
        4
 64
     7
 65
   257
 75
     1
175
     1
 42
1.0
 92
        0
 66
   257
 43
1.0
 76
     1
 77
     6
 78
     2
 67
     7
 79
     5
170
     0
171
     0
290
     0
174
     0
 93
       13
 44
0.0
173
     0
291
     1
 45
0.0
1001
ACAD
1000
AcDbSavedByObjectVersion
1070
     0
  0
VISUALSTYLE
  5
37
102
{ACAD_REACTORS
330
29
102
}
330
29
100
AcDbVisualStyle
  2
Linepattern
 70
    14
 71
     2
 72
     2
 73
     0
 90
        0
 40
-0.6
 41
-30.0
 62
     5
 63
     7
 74
     1
 91
        4
 64
     7
 65
   257
 75
     7
175
     7
 42
1.0
 92
        8
 66
     7
 43
1.0
 76
     1
 77
     6
 78
     2
 67
     7
 79
     5
170
     0
171
     0
290
     0
174
     0
 93
        1
 44
0.0
173
     0
291
     1
 45
0.0
1001
ACAD
1000
AcDbSavedByObjectVersion
1070
     0
  0
VISUALSTYLE
  5
33
102
{ACAD_REACTORS
330
29
102
}
330
29
100
AcDbVisualStyle
  2
Realistic
 70
     8
 71
     2
 72
     2
 73
     0
 90
        0
 40
-0.6
 41
-30.0
 62
     5
 63
     7
 74
     1
 91
        0
 64
     7
 65
   257
 75
     1
175
     1
 42
1.0
 92
        8
 66
     8
 43
1.0
 76
     1
 77
     6
 78
     2
 67
     7
 79
     5
170
     0
171
     0
290
     0
174
     0
 93
       13
 44
0.0
173
     0
291
     0
 45
0.0
1001
ACAD
1000
AcDbSavedByObjectVersion
1070
     0
  0
VISUALSTYLE
  5
36
102
{ACAD_REACTORS
330
29
102
}
330
29
100
AcDbVisualStyle
  2
Thicken
 70
    13
 71
     2
 72
     2
 73
     0
 90
        0
 40
-0.6
 41
-30.0
 62
     5
 63
     7
 74
     1
 91
        4
 64
     7
 65
   257
 75
     1
175
     1
 42
1.0
 92
       12
 66
     7
 43
1.0
 76
     1
 77
     6
 78
     2
 67
     7
 79
     5
170
     0
171
     0
290
     0
174
     0
 93
        1
 44
0.0
173
     0
291
     1
 45
0.0
1001
ACAD
1000
AcDbSavedByObjectVersion
1070
     0
  0
DICTIONARYVAR
  5
275
102
{ACAD_REACTORS
330
271
102
}
330
271
100
DictionaryVariables
280
     0
  1
1:1
  0
DICTIONARYVAR
  5
273
102
{ACAD_REACTORS
330
271
102
}
330
271
100
DictionaryVariables
280
     0
  1
STANDARD
  0
DICTIONARYVAR
  5
272
102
{ACAD_REACTORS
330
271
102
}
330
271
100
DictionaryVariables
280
     0
  1
STANDARD
  0
DICTIONARYVAR
  5
27A
102
{ACAD_REACTORS
330
271
102
}
330
271
100
DictionaryVariables
280
     0
  1
1
  0
DICTIONARYVAR
  5
279
102
{ACAD_REACTORS
330
271
102
}
330
271
100
DictionaryVariables
280
     0
  1
1
  0
DICTIONARYVAR
  5
278
102
{ACAD_REACTORS
330
271
102
}
330
271
100
DictionaryVariables
280
     0
  1
0
  0
DICTIONARYVAR
  5
276
102
{ACAD_REACTORS
330
271
102
}
330
271
100
DictionaryVariables
280
     0
  1
2
  0
DICTIONARYVAR
  5
274
102
{ACAD_REACTORS
330
271
102
}
330
271
100
DictionaryVariables
280
     0
  1
1
  0
DICTIONARYVAR
  5
277
102
{ACAD_REACTORS
330
271
102
}
330
271
100
DictionaryVariables
280
     0
  1
127
  0
DICTIONARY
  5
283
330
74
100
AcDbDictionary
280
     1
281
     1
  3
ACAD_XREC_ROUNDTRIP
360
284
  0
DICTIONARY
  5
287
330
7C
100
AcDbDictionary
280
     1
281
     1
  3
ACAD_XREC_ROUNDTRIP
360
288
  0
DICTIONARY
  5
285
330
78
100
AcDbDictionary
280
     1
281
     1
  3
ACAD_XREC_ROUNDTRIP
360
286
  0
DICTIONARY
  5
1A
330
19
100
AcDbDictionary
280
     1
281
     1
  3
ACAD_XREC_ROUNDTRIP
360
280
  3
BUMPTILE
360
1C
  3
DIFFUSETILE
360
1B
  3
OPACITYTILE
360
1F
  3
REFLECTIONTILE
360
1E
  3
REFRACTIONTILE
360
20
  3
SPECULARTILE
360
1D
  0
DICTIONARY
  5
12
330
11
100
AcDbDictionary
280
     1
281
     1
  3
ACAD_XREC_ROUNDTRIP
360
27F
  3
BUMPTILE
360
14
  3
DIFFUSETILE
360
13
  3
OPACITYTILE
360
17
  3
REFLECTIONTILE
360
16
  3
REFRACTIONTILE
360
18
  3
SPECULARTILE
360
15
  0
DICTIONARY
  5
22
330
21
100
AcDbDictionary
280
     1
281
     1
  3
ACAD_XREC_ROUNDTRIP
360
281
  3
BUMPTILE
360
24
  3
DIFFUSETILE
360
23
  3
OPACITYTILE
360
27
  3
REFLECTIONTILE
360
26
  3
REFRACTIONTILE
360
28
  3
SPECULARTILE
360
25
  0
DICTIONARY
  5
27B
330
6D
100
AcDbDictionary
280
     1
281
     1
  3
ACAD_ROUNDTRIP_2008_TABLESTYLE_CELLSTYLEMAP
360
27C
  3
ACAD_XREC_ROUNDTRIP
360
282
  0
XRECORD
  5
284
102
{ACAD_REACTORS
330
283
102
}
330
283
100
AcDbXrecord
280
     1
102
SHADEPLOT
 70
     0
102
SHADEPLOTRESLEVEL
 70
     2
102
SHADEPLOTCUSTOMDPI
 70
   300
  0
XRECORD
  5
288
102
{ACAD_REACTORS
330
287
102
}
330
287
100
AcDbXrecord
280
     1
102
SHADEPLOT
 70
     0
102
SHADEPLOTRESLEVEL
 70
     2
102
SHADEPLOTCUSTOMDPI
 70
   300
  0
XRECORD
  5
286
102
{ACAD_REACTORS
330
285
102
}
330
285
100
AcDbXrecord
280
     1
102
SHADEPLOT
 70
     0
102
SHADEPLOTRESLEVEL
 70
     2
102
SHADEPLOTCUSTOMDPI
 70
   300
  0
XRECORD
  5
280
102
{ACAD_REACTORS
330
1A
102
}
330
1A
100
AcDbXrecord
280
     1
102
MATERIAL
148
0.0
149
0.0
149
0.0
 93
        0
 94
      127
282
     0
 72
     0
 77
     0
171
     0
175
     0
179
     0
273
     0
  0
XRECORD
  5
1C
102
{ACAD_REACTORS
330
1A
102
}
330
1A
100
AcDbXrecord
280
     1
270
     1
271
     1
  0
XRECORD
  5
1B
102
{ACAD_REACTORS
330
1A
102
}
330
1A
100
AcDbXrecord
280
     1
270
     1
271
     1
  0
XRECORD
  5
1F
102
{ACAD_REACTORS
330
1A
102
}
330
1A
100
AcDbXrecord
280
     1
270
     1
271
     1
  0
XRECORD
  5
1E
102
{ACAD_REACTORS
330
1A
102
}
330
1A
100
AcDbXrecord
280
     1
270
     1
271
     1
  0
XRECORD
  5
20
102
{ACAD_REACTORS
330
1A
102
}
330
1A
100
AcDbXrecord
280
     1
270
     1
271
     1
  0
XRECORD
  5
1D
102
{ACAD_REACTORS
330
1A
102
}
330
1A
100
AcDbXrecord
280
     1
270
     1
271
     1
  0
XRECORD
  5
27F
102
{ACAD_REACTORS
330
12
102
}
330
12
100
AcDbXrecord
280
     1
102
MATERIAL
148
0.0
149
0.0
149
0.0
 93
        0
 94
      127
282
     0
 72
     0
 77
     0
171
     0
175
     0
179
     0
273
     0
  0
XRECORD
  5
14
102
{ACAD_REACTORS
330
12
102
}
330
12
100
AcDbXrecord
280
     1
270
     1
271
     1
  0
XRECORD
  5
13
102
{ACAD_REACTORS
330
12
102
}
330
12
100
AcDbXrecord
280
     1
270
     1
271
     1
  0
XRECORD
  5
17
102
{ACAD_REACTORS
330
12
102
}
330
12
100
AcDbXrecord
280
     1
270
     1
271
     1
  0
XRECORD
  5
16
102
{ACAD_REACTORS
330
12
102
}
330
12
100
AcDbXrecord
280
     1
270
     1
271
     1
  0
XRECORD
  5
18
102
{ACAD_REACTORS
330
12
102
}
330
12
100
AcDbXrecord
280
     1
270
     1
271
     1
  0
XRECORD
  5
15
102
{ACAD_REACTORS
330
12
102
}
330
12
100
AcDbXrecord
280
     1
270
     1
271
     1
  0
XRECORD
  5
281
102
{ACAD_REACTORS
330
22
102
}
330
22
100
AcDbXrecord
280
     1
102
MATERIAL
148
0.0
149
0.0
149
0.0
 93
        0
 94
      127
282
     0
 72
     0
 77
     0
171
     0
175
     0
179
     0
273
     0
  0
XRECORD
  5
24
102
{ACAD_REACTORS
330
22
102
}
330
22
100
AcDbXrecord
280
     1
270
     1
271
     1
  0
XRECORD
  5
23
102
{ACAD_REACTORS
330
22
102
}
330
22
100
AcDbXrecord
280
     1
270
     1
271
     1
  0
XRECORD
  5
27
102
{ACAD_REACTORS
330
22
102
}
330
22
100
AcDbXrecord
280
     1
270
     1
271
     1
  0
XRECORD
  5
26
102
{ACAD_REACTORS
330
22
102
}
330
22
100
AcDbXrecord
280
     1
270
     1
271
     1
  0
XRECORD
  5
28
102
{ACAD_REACTORS
330
22
102
}
330
22
100
AcDbXrecord
280
     1
270
     1
271
     1
  0
XRECORD
  5
25
102
{ACAD_REACTORS
330
22
102
}
330
22
100
AcDbXrecord
280
     1
270
     1
271
     1
  0
CELLSTYLEMAP
  5
27C
102
{ACAD_REACTORS
330
27B
102
}
330
27B
100
AcDbCellStyleMap
 90
        3
300
CELLSTYLE
  1
TABLEFORMAT_BEGIN
 90
        5
170
     1
 91
        0
 92
    32768
 62
   257
 93
        1
300
CONTENTFORMAT
  1
CONTENTFORMAT_BEGIN
 90
        0
 91
        0
 92
      512
 93
        0
300

 40
0.0
140
1.0
 94
        5
 62
     0
340
5D
144
0.25
309
CONTENTFORMAT_END
171
     0
 94
        0
309
TABLEFORMAT_END
  1
CELLSTYLE_BEGIN
 90
        1
 91
        1
300
_TITLE
309
CELLSTYLE_END
300
CELLSTYLE
  1
TABLEFORMAT_BEGIN
 90
        5
170
     1
 91
        0
 92
        0
 62
   257
 93
        1
300
CONTENTFORMAT
  1
CONTENTFORMAT_BEGIN
 90
        0
 91
        0
 92
      512
 93
        0
300

 40
0.0
140
1.0
 94
        5
 62
     0
340
5D
144
0.18
309
CONTENTFORMAT_END
171
     0
 94
        0
309
TABLEFORMAT_END
  1
CELLSTYLE_BEGIN
 90
        2
 91
        1
300
_HEADER
309
CELLSTYLE_END
300
CELLSTYLE
  1
TABLEFORMAT_BEGIN
 90
        5
170
     1
 91
        0
 92
        0
 62
   257
 93
        1
300
CONTENTFORMAT
  1
CONTENTFORMAT_BEGIN
 90
        0
 91
        0
 92
      512
 93
        0
300

 40
0.0
140
1.0
 94
        2
 62
     0
340
5D
144
0.18
309
CONTENTFORMAT_END
171
     0
 94
        0
309
TABLEFORMAT_END
  1
CELLSTYLE_BEGIN
 90
        3
 91
        2
300
_DATA
309
CELLSTYLE_END
  0
XRECORD
  5
282
102
{ACAD_REACTORS
330
27B
102
}
330
27B
100
AcDbXrecord
280
     1
102
ACAD_ROUNDTRIP_PRE2007_TABLESTYLE
 90
      512
 91
        0
  1

 92
      512
 93
        0
  2

 94
      512
 95
        0
  3

  0
ENDSEC
  0
EOF
