  0
SECTION
  2
HEADER
  9
$ACADVER
  1
AC1009
  9
$INSBASE
 10
0.0
 20
0.0
 30
0.0
  9
$EXTMIN
 10
-24.458112
 20
16.165
 30
0.0
  9
$EXTMAX
 10
-13.224388
 20
23.235
 30
0.0
  9
$LIMMIN
 10
0.0
 20
0.0
  9
$LIMMAX
 10
0.0
 20
0.0
  9
$ORTHOMODE
 70
     0
  9
$REGENMODE
 70
     1
  9
$FILLMODE
 70
     1
  9
$QTEXTMODE
 70
     0
  9
$MIRRTEXT
 70
     1
  9
$DRAGMODE
 70
     2
  9
$LTSCALE
 40
1.0
  9
$OSMODE
 70
     0
  9
$ATTMODE
 70
     1
  9
$TEXTSIZE
 40
0.2
  9
$TRACEWID
 40
0.05
  9
$TEXTSTYLE
  7
STANDARD
  9
$CLAYER
  8
0
  9
$CELTYPE
  6
CONTINUOUS
  9
$CECOLOR
 62
   256
  9
$DIMSCALE
 40
1.0
  9
$DIMASZ
 40
0.18
  9
$DIMEXO
 40
0.0625
  9
$DIMDLI
 40
0.38
  9
$DIMRND
 40
0.0
  9
$DIMDLE
 40
0.0
  9
$DIMEXE
 40
0.18
  9
$DIMTP
 40
0.0
  9
$DIMTM
 40
0.0
  9
$DIMTXT
 40
0.18
  9
$DIMCEN
 40
0.09
  9
$DIMTSZ
 40
0.0
  9
$DIMTOL
 70
     0
  9
$DIMLIM
 70
     0
  9
$DIMTIH
 70
     1
  9
$DIMTOH
 70
     1
  9
$DIMSE1
 70
     0
  9
$DIMSE2
 70
     0
  9
$DIMTAD
 70
     0
  9
$DIMZIN
 70
     0
  9
$DIMBLK
  1

  9
$DIMASO
 70
     1
  9
$DIMSHO
 70
     1
  9
$DIMPOST
  1

  9
$DIMAPOST
  1

  9
$DIMALT
 70
     0
  9
$DIMALTD
 70
     2
  9
$DIMALTF
 40
25.4
  9
$DIMLFAC
 40
1.0
  9
$DIMTOFL
 70
     0
  9
$DIMTVP
 40
0.0
  9
$DIMTIX
 70
     0
  9
$DIMSOXD
 70
     0
  9
$DIMSAH
 70
     0
  9
$DIMBLK1
  1

  9
$DIMBLK2
  1

  9
$DIMSTYLE
  2
STANDARD
  9
$DIMCLRD
 70
     0
  9
$DIMCLRE
 70
     0
  9
$DIMCLRT
 70
     0
  9
$DIMTFAC
 40
1.0
  9
$DIMGAP
 40
0.09
  9
$LUNITS
 70
     2
  9
$LUPREC
 70
     4
  9
$AXISMODE
 70
     0
  9
$AXISUNIT
 10
0.0
 20
0.0
  9
$SKETCHINC
 40
0.1
  9
$FILLETRAD
 40
0.0
  9
$AUNITS
 70
     0
  9
$AUPREC
 70
     0
  9
$MENU
  1
acad
  9
$ELEVATION
 40
0.0
  9
$PELEVATION
 40
0.0
  9
$THICKNESS
 40
0.0
  9
$LIMCHECK
 70
     0
  9
$BLIPMODE
 70
     1
  9
$CHAMFERA
 40
0.0
  9
$CHAMFERB
 40
0.0
  9
$SKPOLY
 70
     0
  9
$TDCREATE
 40
0.000000000
  9
$TDUPDATE
 40
0.000000000
  9
$TDINDWG
 40
0.0000000000
  9
$TDUSRTIMER
 40
0.0000000000
  9
$USRTIMER
 70
     1
  9
$ANGBASE
 50
0.0
  9
$ANGDIR
 70
     0
  9
$PDMODE
 70
     0
  9
$PDSIZE
 40
0.0
  9
$PLINEWID
 40
0.0
  9
$COORDS
 70
     0
  9
$SPLFRAME
 70
     0
  9
$SPLINETYPE
 70
     6
  9
$SPLINESEGS
 70
     8
  9
$ATTDIA
 70
     0
  9
$ATTREQ
 70
     1
  9
$HANDLING
 70
     1
  9
$HANDSEED
  5
1DD
  9
$SURFTAB1
 70
     6
  9
$SURFTAB2
 70
     6
  9
$SURFTYPE
 70
     6
  9
$SURFU
 70
     6
  9
$SURFV
 70
     6
  9
$UCSNAME
  2

  9
$UCSORG
 10
0.0
 20
0.0
 30
0.0
  9
$UCSXDIR
 10
1.0
 20
0.0
 30
0.0
  9
$UCSYDIR
 10
0.0
 20
1.0
 30
0.0
  9
$PUCSNAME
  2

  9
$PUCSORG
 10
0.0
 20
0.0
 30
0.0
  9
$PUCSXDIR
 10
1.0
 20
0.0
 30
0.0
  9
$PUCSYDIR
 10
0.0
 20
1.0
 30
0.0
  9
$USERI1
 70
     0
  9
$USERI2
 70
     0
  9
$USERI3
 70
     0
  9
$USERI4
 70
     0
  9
$USERI5
 70
     0
  9
$USERR1
 40
0.0
  9
$USERR2
 40
0.0
  9
$USERR3
 40
0.0
  9
$USERR4
 40
0.0
  9
$USERR5
 40
0.0
  9
$WORLDVIEW
 70
     1
  9
$SHADEDGE
 70
     3
  9
$SHADEDIF
 70
    70
  9
$TILEMODE
 70
     1
  9
$MAXACTVP
 70
    16
  9
$PINSBASE
 10
0.0
 20
0.0
 30
0.0
  9
$PLIMCHECK
 70
     0
  9
$PEXTMIN
 10
1.000000E+20
 20
1.000000E+20
 30
1.000000E+20
  9
$PEXTMAX
 10
-1.000000E+20
 20
-1.000000E+20
 30
-1.000000E+20
  9
$PLIMMIN
 10
0.0
 20
0.0
  9
$PLIMMAX
 10
12.0
 20
9.0
  9
$UNITMODE
 70
     0
  9
$VISRETAIN
 70
     0
  9
$PLINEGEN
 70
     1
  9
$PSLTSCALE
 70
     0
  9
$TREEDEPTH
 70
  3020
  9
$DWGCODEPAGE
  3
dos850
  0
ENDSEC
  0
SECTION
  2
TABLES
  0
TABLE
  2
VPORT
 70
     1
  0
VPORT
  2
*ACTIVE
 70
     0
 10
0.0
 20
0.0
 11
1.0
 21
1.0
 12
6.591288
 22
4.579184
 13
0.0
 23
0.0
 14
1.0
 24
1.0
 15
0.0
 25
0.0
 16
0.0
 26
0.0
 36
1.0
 17
0.0
 27
0.0
 37
0.0
 40
9.158369
 41
0.688564
 42
50.0
 43
0.0
 44
0.0
 50
0.0
 51
0.0
 71
     0
 72
   100
 73
     1
 74
     1
 75
     0
 76
     0
 77
     0
 78
     0
  0
ENDTAB
  0
TABLE
  2
LTYPE
 70
     1
  0
LTYPE
  2
CONTINUOUS
 70
    64
  3
Solid line
 72
    65
 73
     0
 40
0.0
  0
ENDTAB
  0
TABLE
  2
LAYER
 70
     7
  0
LAYER
  2
0
 70
     0
 62
     7
  6
CONTINUOUS
  0
LAYER
  2
MERGE
 70
     0
 62
     7
  6
CONTINUOUS
  0
LAYER
  2
STANDARD
 70
     0
 62
     7
  6
CONTINUOUS
  0
LAYER
  2
PINS
 70
     0
 62
     7
  6
CONTINUOUS
  0
LAYER
  2
PARAMS
 70
     0
 62
     7
  6
CONTINUOUS
  0
LAYER
  2
OUTLINE
 70
     0
 62
     7
  6
CONTINUOUS
  0
LAYER
  2
INTERNALS
 70
     0
 62
     7
  6
CONTINUOUS
  0
ENDTAB
  0
TABLE
  2
STYLE
 70
     2
  0
STYLE
  2
STANDARD
 70
     0
 40
0.0
 41
1.0
 50
0.0
 71
     0
 42
0.0
  3
txt
  4

  0
STYLE
  2
STYLE1
 70
     0
 40
0.0
 41
1.0
 50
0.0
 71
     0
 42
0.0
  3
Arial.ttf
  4

  0
ENDTAB
  0
TABLE
  2
VIEW
 70
     0
  0
ENDTAB
  0
TABLE
  2
UCS
 70
     0
  0
ENDTAB
  0
TABLE
  2
APPID
 70
     1
  0
APPID
  2
ACAD
 70
     0
  0
ENDTAB
  0
TABLE
  2
DIMSTYLE
 70
     1
  0
DIMSTYLE
  2
STANDARD
 70
     0
  3

  4

  5

  6

  7

 40
1.0
 41
0.18
 42
0.0625
 43
0.38
 44
0.18
 45
0.0
 46
0.0
 47
0.0
 48
0.0
 71
     0
 72
     0
 73
     1
 74
     1
 75
     0
 76
     0
 77
     0
 78
     0
140
0.18
141
0.09
142
0.0
143
25.4
144
1.0
145
0.0
146
1.0
147
0.09
170
     0
171
     2
172
     0
173
     0
174
     0
175
     0
176
     0
177
     0
178
     0
  0
ENDTAB
  0
ENDSEC
  0
SECTION
  2
BLOCKS
  0
ENDSEC
  0
SECTION
  2
ENTITIES
  0
POLYLINE
  8
STANDARD
 62
     7
  5
24
 66
     1
 10
0.0
 20
0.0
 30
0.0
 70
     1
  0
VERTEX
  8
STANDARD
 62
     7
  5
25
 10
-15.2
 20
17.8
 30
0.0
  0
VERTEX
  8
STANDARD
 62
     7
  5
26
 10
-15.3
 20
17.9
 30
0.0
  0
VERTEX
  8
STANDARD
 62
     7
  5
27
 10
-15.2
 20
18.0
 30
0.0
  0
VERTEX
  8
STANDARD
 62
     7
  5
28
 10
-13.9
 20
18.0
 30
0.0
  0
VERTEX
  8
STANDARD
 62
     7
  5
29
 10
-13.9
 20
17.8
 30
0.0
  0
VERTEX
  8
STANDARD
 62
     7
  5
2A
 10
-15.2
 20
17.8
 30
0.0
  0
VERTEX
  8
STANDARD
 62
     7
  5
2B
 10
-15.2
 20
17.8
 30
0.0
  0
SEQEND
  8
0
  5
2C
  0
POLYLINE
  8
STANDARD
 62
     7
  5
2D
 66
     1
 10
0.0
 20
0.0
 30
0.0
 70
     1
  0
VERTEX
  8
STANDARD
 62
     7
  5
2E
 10
-15.2
 20
17.5
 30
0.0
  0
VERTEX
  8
STANDARD
 62
     7
  5
2F
 10
-15.3
 20
17.6
 30
0.0
  0
VERTEX
  8
STANDARD
 62
     7
  5
30
 10
-15.2
 20
17.7
 30
0.0
  0
VERTEX
  8
STANDARD
 62
     7
  5
31
 10
-13.9
 20
17.7
 30
0.0
  0
VERTEX
  8
STANDARD
 62
     7
  5
32
 10
-13.9
 20
17.5
 30
0.0
  0
VERTEX
  8
STANDARD
 62
     7
  5
33
 10
-15.2
 20
17.5
 30
0.0
  0
VERTEX
  8
STANDARD
 62
     7
  5
34
 10
-15.2
 20
17.5
 30
0.0
  0
SEQEND
  8
0
  5
35
  0
POLYLINE
  8
STANDARD
 62
     7
  5
36
 66
     1
 10
0.0
 20
0.0
 30
0.0
 70
     1
  0
VERTEX
  8
STANDARD
 62
     7
  5
37
 10
-15.2
 20
16.9
 30
0.0
  0
VERTEX
  8
STANDARD
 62
     7
  5
38
 10
-15.3
 20
17.0
 30
0.0
  0
VERTEX
  8
STANDARD
 62
     7
  5
39
 10
-15.2
 20
17.1
 30
0.0
  0
VERTEX
  8
STANDARD
 62
     7
  5
3A
 10
-13.9
 20
17.1
 30
0.0
  0
VERTEX
  8
STANDARD
 62
     7
  5
3B
 10
-13.9
 20
16.9
 30
0.0
  0
VERTEX
  8
STANDARD
 62
     7
  5
3C
 10
-15.2
 20
16.9
 30
0.0
  0
VERTEX
  8
STANDARD
 62
     7
  5
3D
 10
-15.2
 20
16.9
 30
0.0
  0
SEQEND
  8
0
  5
3E
  0
POLYLINE
  8
STANDARD
 62
     7
  5
3F
 66
     1
 10
0.0
 20
0.0
 30
0.0
 70
     1
  0
VERTEX
  8
STANDARD
 62
     7
  5
40
 10
-15.2
 20
16.2
 30
0.0
  0
VERTEX
  8
STANDARD
 62
     7
  5
41
 10
-15.3
 20
16.3
 30
0.0
  0
VERTEX
  8
STANDARD
 62
     7
  5
42
 10
-15.2
 20
16.4
 30
0.0
  0
VERTEX
  8
STANDARD
 62
     7
  5
43
 10
-13.9
 20
16.4
 30
0.0
  0
VERTEX
  8
STANDARD
 62
     7
  5
44
 10
-13.9
 20
16.2
 30
0.0
  0
VERTEX
  8
STANDARD
 62
     7
  5
45
 10
-15.2
 20
16.2
 30
0.0
  0
VERTEX
  8
STANDARD
 62
     7
  5
46
 10
-15.2
 20
16.2
 30
0.0
  0
SEQEND
  8
0
  5
47
  0
POLYLINE
  8
STANDARD
 62
     7
  5
48
 66
     1
 10
0.0
 20
0.0
 30
0.0
 70
     1
  0
VERTEX
  8
STANDARD
 62
     7
  5
49
 10
-15.2
 20
17.2
 30
0.0
  0
VERTEX
  8
STANDARD
 62
     7
  5
4A
 10
-15.3
 20
17.3
 30
0.0
  0
VERTEX
  8
STANDARD
 62
     7
  5
4B
 10
-15.2
 20
17.4
 30
0.0
  0
VERTEX
  8
STANDARD
 62
     7
  5
4C
 10
-13.9
 20
17.4
 30
0.0
  0
VERTEX
  8
STANDARD
 62
     7
  5
4D
 10
-13.9
 20
17.2
 30
0.0
  0
VERTEX
  8
STANDARD
 62
     7
  5
4E
 10
-15.2
 20
17.2
 30
0.0
  0
VERTEX
  8
STANDARD
 62
     7
  5
4F
 10
-15.2
 20
17.2
 30
0.0
  0
SEQEND
  8
0
  5
50
  0
POLYLINE
  8
STANDARD
 62
     7
  5
51
 66
     1
 10
0.0
 20
0.0
 30
0.0
 70
     1
  0
VERTEX
  8
STANDARD
 62
     7
  5
52
 10
-15.2
 20
22.3
 30
0.0
  0
VERTEX
  8
STANDARD
 62
     7
  5
53
 10
-15.3
 20
22.4
 30
0.0
  0
VERTEX
  8
STANDARD
 62
     7
  5
54
 10
-15.2
 20
22.5
 30
0.0
  0
VERTEX
  8
STANDARD
 62
     7
  5
55
 10
-13.9
 20
22.5
 30
0.0
  0
VERTEX
  8
STANDARD
 62
     7
  5
56
 10
-13.9
 20
22.3
 30
0.0
  0
VERTEX
  8
STANDARD
 62
     7
  5
57
 10
-15.2
 20
22.3
 30
0.0
  0
VERTEX
  8
STANDARD
 62
     7
  5
58
 10
-15.2
 20
22.3
 30
0.0
  0
SEQEND
  8
0
  5
59
  0
POLYLINE
  8
STANDARD
 62
     7
  5
5A
 66
     1
 10
0.0
 20
0.0
 30
0.0
 70
     1
  0
VERTEX
  8
STANDARD
 62
     7
  5
5B
 10
-14.0
 20
16.5
 30
0.0
  0
VERTEX
  8
STANDARD
 62
     7
  5
5C
 10
-13.9
 20
16.6
 30
0.0
  0
VERTEX
  8
STANDARD
 62
     7
  5
5D
 10
-14.0
 20
16.7
 30
0.0
  0
VERTEX
  8
STANDARD
 62
     7
  5
5E
 10
-15.3
 20
16.7
 30
0.0
  0
VERTEX
  8
STANDARD
 62
     7
  5
5F
 10
-15.3
 20
16.5
 30
0.0
  0
VERTEX
  8
STANDARD
 62
     7
  5
60
 10
-14.0
 20
16.5
 30
0.0
  0
VERTEX
  8
STANDARD
 62
     7
  5
61
 10
-14.0
 20
16.5
 30
0.0
  0
SEQEND
  8
0
  5
62
  0
POLYLINE
  8
STANDARD
 62
     7
  5
63
 66
     1
 10
0.0
 20
0.0
 30
0.0
 70
     1
  0
VERTEX
  8
STANDARD
 62
     7
  5
64
 10
-14.0
 20
19.1
 30
0.0
  0
VERTEX
  8
STANDARD
 62
     7
  5
65
 10
-13.9
 20
19.2
 30
0.0
  0
VERTEX
  8
STANDARD
 62
     7
  5
66
 10
-14.0
 20
19.3
 30
0.0
  0
VERTEX
  8
STANDARD
 62
     7
  5
67
 10
-15.3
 20
19.3
 30
0.0
  0
VERTEX
  8
STANDARD
 62
     7
  5
68
 10
-15.3
 20
19.1
 30
0.0
  0
VERTEX
  8
STANDARD
 62
     7
  5
69
 10
-14.0
 20
19.1
 30
0.0
  0
VERTEX
  8
STANDARD
 62
     7
  5
6A
 10
-14.0
 20
19.1
 30
0.0
  0
SEQEND
  8
0
  5
6B
  0
TEXT
  8
STANDARD
 62
     7
  5
6C
 10
-14.9575
 20
17.85
 30
0.0
 40
0.1
  1
pos-lim-sw-in
  7
STYLE1
 72
     1
 11
-14.6
 21
17.9
 31
0.0
 73
     2
  0
TEXT
  8
STANDARD
 62
     7
  5
6D
 10
-14.9575
 20
17.55
 30
0.0
 40
0.1
  1
neg-lim-sw-in
  7
STYLE1
 72
     1
 11
-14.6
 21
17.6
 31
0.0
 73
     2
  0
TEXT
  8
STANDARD
 62
     7
  5
6E
 10
-14.985
 20
16.95
 30
0.0
 40
0.1
  1
index-pulse-in
  7
STYLE1
 72
     1
 11
-14.6
 21
17.0
 31
0.0
 73
     2
  0
TEXT
  8
STANDARD
 62
     7
  5
6F
 10
-14.93
 20
16.25
 30
0.0
 40
0.1
  1
amp-fault-in
  7
STYLE1
 72
     1
 11
-14.6
 21
16.3
 31
0.0
 73
     2
  0
TEXT
  8
STANDARD
 62
     7
  5
70
 10
-14.875
 20
17.25
 30
0.0
 40
0.1
  1
home-sw-in
  7
STYLE1
 72
     1
 11
-14.6
 21
17.3
 31
0.0
 73
     2
  0
TEXT
  8
STANDARD
 62
     7
  5
71
 10
-14.93
 20
22.35
 30
0.0
 40
0.1
  1
motor-pos-fb
  7
STYLE1
 72
     1
 11
-14.6
 21
22.4
 31
0.0
 73
     2
  0
TEXT
  8
STANDARD
 62
     7
  5
72
 10
-14.985
 20
16.55
 30
0.0
 40
0.1
  1
amp-enable-out
  7
STYLE1
 72
     1
 11
-14.6
 21
16.6
 31
0.0
 73
     2
  0
TEXT
  8
STANDARD
 62
     7
  5
73
 10
-14.9575
 20
19.15
 30
0.0
 40
0.1
  1
motor-pos-cmd
  7
STYLE1
 72
     1
 11
-14.6
 21
19.2
 31
0.0
 73
     2
  0
TEXT
  8
PARAMS
 62
     7
  5
74
 10
-22.53
 20
20.75
 30
0.0
 40
0.1
  1
free-pos-cmd
  7
STYLE1
 72
     1
 11
-22.2
 21
20.8
 31
0.0
 73
     2
  0
TEXT
  8
PARAMS
 62
     7
  5
75
 10
-22.53
 20
20.35
 30
0.0
 40
0.1
  1
free-vel-lim
  7
STYLE1
 72
     1
 11
-22.2
 21
20.4
 31
0.0
 73
     2
  0
TEXT
  8
PARAMS
 62
     7
  5
76
 10
-17.63
 20
21.75
 30
0.0
 40
0.1
  1
motor-offset
  7
STYLE1
 72
     1
 11
-17.3
 21
21.8
 31
0.0
 73
     2
  0
TEXT
  8
PARAMS
 62
     7
  5
77
 10
-17.4925
 20
19.85
 30
0.0
 40
0.1
  1
vel-cmd
  7
STYLE1
 72
     1
 11
-17.3
 21
19.9
 31
0.0
 73
     2
  0
TEXT
  8
PARAMS
 62
     7
  5
78
 10
-22.365
 20
22.65
 30
0.0
 40
0.1
  1
pos-fb
  7
STYLE1
 72
     1
 11
-22.2
 21
22.7
 31
0.0
 73
     2
  0
TEXT
  8
PARAMS
 62
     7
  5
79
 10
-22.475
 20
19.45
 30
0.0
 40
0.1
  1
coarse-pos
  7
STYLE1
 72
     1
 11
-22.2
 21
19.5
 31
0.0
 73
     2
  0
TEXT
  8
PARAMS
 62
     7
  5
7A
 10
-17.4925
 20
19.45
 30
0.0
 40
0.1
  1
pos-cmd
  7
STYLE1
 72
     1
 11
-17.3
 21
19.5
 31
0.0
 73
     2
  0
POLYLINE
  8
STANDARD
 62
     7
  5
7B
 66
     1
 10
0.0
 20
0.0
 30
0.0
 70
     1
  0
VERTEX
  8
STANDARD
 62
     7
  5
7C
 10
-21.3
 20
18.9
 30
0.0
  0
VERTEX
  8
STANDARD
 62
     7
  5
7D
 10
-21.3
 20
19.5
 30
0.0
  0
VERTEX
  8
STANDARD
 62
     7
  5
7E
 10
-20.3
 20
19.5
 30
0.0
  0
VERTEX
  8
STANDARD
 62
     7
  5
7F
 10
-20.3
 20
18.9
 30
0.0
  0
VERTEX
  8
STANDARD
 62
     7
  5
80
 10
-21.3
 20
18.9
 30
0.0
  0
SEQEND
  8
0
  5
81
  0
POLYLINE
  8
STANDARD
 62
     7
  5
82
 66
     1
 10
0.0
 20
0.0
 30
0.0
 70
     1
  0
VERTEX
  8
STANDARD
 62
     7
  5
83
 10
-21.3
 20
20.3
 30
0.0
  0
VERTEX
  8
STANDARD
 62
     7
  5
84
 10
-21.3
 20
20.9
 30
0.0
  0
VERTEX
  8
STANDARD
 62
     7
  5
85
 10
-20.3
 20
20.9
 30
0.0
  0
VERTEX
  8
STANDARD
 62
     7
  5
86
 10
-20.3
 20
20.3
 30
0.0
  0
VERTEX
  8
STANDARD
 62
     7
  5
87
 10
-21.3
 20
20.3
 30
0.0
  0
SEQEND
  8
0
  5
88
  0
POLYLINE
  8
STANDARD
 62
     7
  5
89
 66
     1
 10
0.0
 20
0.0
 30
0.0
 70
     1
  0
VERTEX
  8
STANDARD
 62
     7
  5
8A
 10
-17.8
 20
20.3
 30
0.0
  0
VERTEX
  8
STANDARD
 62
     7
  5
8B
 10
-17.8
 20
20.9
 30
0.0
  0
VERTEX
  8
STANDARD
 62
     7
  5
8C
 10
-16.8
 20
20.9
 30
0.0
  0
VERTEX
  8
STANDARD
 62
     7
  5
8D
 10
-16.8
 20
20.3
 30
0.0
  0
VERTEX
  8
STANDARD
 62
     7
  5
8E
 10
-17.8
 20
20.3
 30
0.0
  0
SEQEND
  8
0
  5
8F
  0
CIRCLE
  8
STANDARD
 62
     7
  5
90
 10
-16.0
 20
22.4
 30
0.0
 40
0.2
  0
CIRCLE
  8
STANDARD
 62
     7
  5
91
 10
-16.0
 20
19.2
 30
0.0
 40
0.2
  0
CIRCLE
  8
STANDARD
 62
     7
  5
92
 10
-16.5
 20
21.2
 30
0.0
 40
0.2
  0
LINE
  8
STANDARD
 62
     7
  5
93
 10
-16.0
 20
22.4
 30
0.0
 11
-15.858579
 21
22.541421
 31
0.0
  0
LINE
  8
STANDARD
 62
     7
  5
94
 10
-16.0
 20
19.2
 30
0.0
 11
-15.858579
 21
19.341421
 31
0.0
  0
LINE
  8
STANDARD
 62
     7
  5
95
 10
-16.5
 20
21.2
 30
0.0
 11
-16.358579
 21
21.341421
 31
0.0
  0
LINE
  8
STANDARD
 62
     7
  5
96
 10
-16.0
 20
22.4
 30
0.0
 11
-16.141421
 21
22.541421
 31
0.0
  0
LINE
  8
STANDARD
 62
     7
  5
97
 10
-16.0
 20
19.2
 30
0.0
 11
-16.141421
 21
19.341421
 31
0.0
  0
LINE
  8
STANDARD
 62
     7
  5
98
 10
-16.5
 20
21.2
 30
0.0
 11
-16.641421
 21
21.341421
 31
0.0
  0
LINE
  8
STANDARD
 62
     7
  5
99
 10
-16.0
 20
22.4
 30
0.0
 11
-16.141421
 21
22.258579
 31
0.0
  0
LINE
  8
STANDARD
 62
     7
  5
9A
 10
-16.0
 20
19.2
 30
0.0
 11
-16.141421
 21
19.058579
 31
0.0
  0
LINE
  8
STANDARD
 62
     7
  5
9B
 10
-16.5
 20
21.2
 30
0.0
 11
-16.641421
 21
21.058579
 31
0.0
  0
LINE
  8
STANDARD
 62
     7
  5
9C
 10
-16.0
 20
22.4
 30
0.0
 11
-15.858579
 21
22.258579
 31
0.0
  0
LINE
  8
STANDARD
 62
     7
  5
9D
 10
-16.0
 20
19.2
 30
0.0
 11
-15.858579
 21
19.058579
 31
0.0
  0
LINE
  8
STANDARD
 62
     7
  5
9E
 10
-16.5
 20
21.2
 30
0.0
 11
-16.358579
 21
21.058579
 31
0.0
  0
LINE
  8
STANDARD
 62
     7
  5
9F
 10
-16.05
 20
19.32
 30
0.0
 11
-15.95
 21
19.32
 31
0.0
  0
LINE
  8
STANDARD
 62
     7
  5
A0
 10
-16.55
 20
21.32
 30
0.0
 11
-16.45
 21
21.32
 31
0.0
  0
LINE
  8
STANDARD
 62
     7
  5
A1
 10
-16.0
 20
19.37
 30
0.0
 11
-16.0
 21
19.27
 31
0.0
  0
LINE
  8
STANDARD
 62
     7
  5
A2
 10
-16.5
 20
21.37
 30
0.0
 11
-16.5
 21
21.27
 31
0.0
  0
LINE
  8
STANDARD
 62
     7
  5
A3
 10
-16.17
 20
19.2
 30
0.0
 11
-16.07
 21
19.2
 31
0.0
  0
LINE
  8
STANDARD
 62
     7
  5
A4
 10
-16.12
 20
19.25
 30
0.0
 11
-16.12
 21
19.15
 31
0.0
  0
LINE
  8
STANDARD
 62
     7
  5
A5
 10
-16.5
 20
21.13
 30
0.0
 11
-16.5
 21
21.03
 31
0.0
  0
LINE
  8
STANDARD
 62
     7
  5
A6
 10
-16.05
 20
22.28
 30
0.0
 11
-15.95
 21
22.28
 31
0.0
  0
LINE
  8
STANDARD
 62
     7
  5
A7
 10
-16.55
 20
21.08
 30
0.0
 11
-16.45
 21
21.08
 31
0.0
  0
LINE
  8
STANDARD
 62
     7
  5
A8
 10
-15.88
 20
22.45
 30
0.0
 11
-15.88
 21
22.35
 31
0.0
  0
LINE
  8
STANDARD
 62
     7
  5
A9
 10
-15.93
 20
22.4
 30
0.0
 11
-15.83
 21
22.4
 31
0.0
  0
TEXT
  8
STANDARD
 62
     7
  5
AA
 10
-18.5275
 20
19.95
 30
0.0
 40
0.1
  1
d
  7
STYLE1
 72
     1
 11
-18.5
 21
20.0
 31
0.0
 73
     2
  0
TEXT
  8
STANDARD
 62
     7
  5
AB
 10
-18.555
 20
19.75
 30
0.0
 40
0.1
  1
dT
  7
STYLE1
 72
     1
 11
-18.5
 21
19.8
 31
0.0
 73
     2
  0
LINE
  8
STANDARD
 62
     7
  5
AC
 10
-18.6
 20
19.9
 30
0.0
 11
-18.4
 21
19.9
 31
0.0
  0
CIRCLE
  8
STANDARD
 62
     7
  5
AD
 10
-19.3
 20
19.9
 30
0.0
 40
0.025
  0
CIRCLE
  8
STANDARD
 62
     7
  5
AE
 10
-19.7
 20
20.1
 30
0.0
 40
0.025
  0
CIRCLE
  8
STANDARD
 62
     7
  5
AF
 10
-19.7
 20
19.7
 30
0.0
 40
0.025
  0
LINE
  8
STANDARD
 62
     7
  5
B0
 10
-19.322361
 20
19.91118
 30
0.0
 11
-19.677639
 21
20.08882
 31
0.0
  0
POLYLINE
  8
STANDARD
 62
     7
  5
B1
 66
     1
 10
0.0
 20
0.0
 30
0.0
  0
VERTEX
  8
STANDARD
 62
     7
  5
B2
 10
-19.322361
 20
19.91118
 30
0.0
  0
VERTEX
  8
STANDARD
 62
     7
  5
B3
 10
-19.385963
 20
19.96286
 30
0.0
  0
VERTEX
  8
STANDARD
 62
     7
  5
B4
 10
-19.401866
 20
19.931055
 30
0.0
  0
VERTEX
  8
STANDARD
 62
     7
  5
B5
 10
-19.322361
 20
19.91118
 30
0.0
  0
SEQEND
  8
0
  5
B6
  0
POLYLINE
  8
STANDARD
 62
     7
  5
B7
 66
     1
 10
0.0
 20
0.0
 30
0.0
  0
VERTEX
  8
STANDARD
 62
     7
  5
B8
 10
-19.725
 20
20.1
 30
0.0
  0
VERTEX
  8
STANDARD
 62
     7
  5
B9
 10
-20.0
 20
20.1
 30
0.0
  0
SEQEND
  8
0
  5
BA
  0
POLYLINE
  8
STANDARD
 62
     7
  5
BB
 66
     1
 10
0.0
 20
0.0
 30
0.0
  0
VERTEX
  8
STANDARD
 62
     7
  5
BC
 10
-19.725
 20
20.1
 30
0.0
  0
VERTEX
  8
STANDARD
 62
     7
  5
BD
 10
-19.805
 20
20.11778
 30
0.0
  0
VERTEX
  8
STANDARD
 62
     7
  5
BE
 10
-19.805
 20
20.08222
 30
0.0
  0
VERTEX
  8
STANDARD
 62
     7
  5
BF
 10
-19.725
 20
20.1
 30
0.0
  0
SEQEND
  8
0
  5
C0
  0
LINE
  8
STANDARD
 62
     7
  5
C1
 10
-19.0
 20
19.9
 30
0.0
 11
-19.275
 21
19.9
 31
0.0
  0
POLYLINE
  8
STANDARD
 62
     7
  5
C2
 66
     1
 10
0.0
 20
0.0
 30
0.0
  0
VERTEX
  8
STANDARD
 62
     7
  5
C3
 10
-19.0
 20
19.9
 30
0.0
  0
VERTEX
  8
STANDARD
 62
     7
  5
C4
 10
-19.08
 20
19.91778
 30
0.0
  0
VERTEX
  8
STANDARD
 62
     7
  5
C5
 10
-19.08
 20
19.88222
 30
0.0
  0
VERTEX
  8
STANDARD
 62
     7
  5
C6
 10
-19.0
 20
19.9
 30
0.0
  0
SEQEND
  8
0
  5
C7
  0
LINE
  8
STANDARD
 62
     7
  5
C8
 10
-19.725
 20
19.7
 30
0.0
 11
-20.0
 21
19.7
 31
0.0
  0
POLYLINE
  8
STANDARD
 62
     7
  5
C9
 66
     1
 10
0.0
 20
0.0
 30
0.0
  0
VERTEX
  8
STANDARD
 62
     7
  5
CA
 10
-19.725
 20
19.7
 30
0.0
  0
VERTEX
  8
STANDARD
 62
     7
  5
CB
 10
-19.805
 20
19.71778
 30
0.0
  0
VERTEX
  8
STANDARD
 62
     7
  5
CC
 10
-19.805
 20
19.68222
 30
0.0
  0
VERTEX
  8
STANDARD
 62
     7
  5
CD
 10
-19.725
 20
19.7
 30
0.0
  0
SEQEND
  8
0
  5
CE
  0
LINE
  8
STANDARD
 62
     7
  5
CF
 10
-16.0
 20
22.2
 30
0.0
 11
-16.0
 21
19.4
 31
0.0
  0
POLYLINE
  8
STANDARD
 62
     7
  5
D0
 66
     1
 10
0.0
 20
0.0
 30
0.0
  0
VERTEX
  8
STANDARD
 62
     7
  5
D1
 10
-16.0
 20
22.2
 30
0.0
  0
VERTEX
  8
STANDARD
 62
     7
  5
D2
 10
-16.01778
 20
22.12
 30
0.0
  0
VERTEX
  8
STANDARD
 62
     7
  5
D3
 10
-15.98222
 20
22.12
 30
0.0
  0
VERTEX
  8
STANDARD
 62
     7
  5
D4
 10
-16.0
 20
22.2
 30
0.0
  0
SEQEND
  8
0
  5
D5
  0
POLYLINE
  8
STANDARD
 62
     7
  5
D6
 66
     1
 10
0.0
 20
0.0
 30
0.0
  0
VERTEX
  8
STANDARD
 62
     7
  5
D7
 10
-16.0
 20
19.4
 30
0.0
  0
VERTEX
  8
STANDARD
 62
     7
  5
D8
 10
-15.98222
 20
19.48
 30
0.0
  0
VERTEX
  8
STANDARD
 62
     7
  5
D9
 10
-16.01778
 20
19.48
 30
0.0
  0
VERTEX
  8
STANDARD
 62
     7
  5
DA
 10
-16.0
 20
19.4
 30
0.0
  0
SEQEND
  8
0
  5
DB
  0
LINE
  8
STANDARD
 62
     7
  5
DC
 10
-15.8
 20
22.4
 30
0.0
 11
-15.3
 21
22.4
 31
0.0
  0
POLYLINE
  8
STANDARD
 62
     7
  5
DD
 66
     1
 10
0.0
 20
0.0
 30
0.0
  0
VERTEX
  8
STANDARD
 62
     7
  5
DE
 10
-15.8
 20
22.4
 30
0.0
  0
VERTEX
  8
STANDARD
 62
     7
  5
DF
 10
-15.72
 20
22.38222
 30
0.0
  0
VERTEX
  8
STANDARD
 62
     7
  5
E0
 10
-15.72
 20
22.41778
 30
0.0
  0
VERTEX
  8
STANDARD
 62
     7
  5
E1
 10
-15.8
 20
22.4
 30
0.0
  0
SEQEND
  8
0
  5
E2
  0
LINE
  8
STANDARD
 62
     7
  5
E3
 10
-15.3
 20
19.2
 30
0.0
 11
-15.8
 21
19.2
 31
0.0
  0
POLYLINE
  8
STANDARD
 62
     7
  5
E4
 66
     1
 10
0.0
 20
0.0
 30
0.0
  0
VERTEX
  8
STANDARD
 62
     7
  5
E5
 10
-15.3
 20
19.2
 30
0.0
  0
VERTEX
  8
STANDARD
 62
     7
  5
E6
 10
-15.38
 20
19.21778
 30
0.0
  0
VERTEX
  8
STANDARD
 62
     7
  5
E7
 10
-15.38
 20
19.18222
 30
0.0
  0
VERTEX
  8
STANDARD
 62
     7
  5
E8
 10
-15.3
 20
19.2
 30
0.0
  0
SEQEND
  8
0
  5
E9
  0
LINE
  8
STANDARD
 62
     7
  5
EA
 10
-16.0
 20
21.2
 30
0.0
 11
-16.3
 21
21.2
 31
0.0
  0
POLYLINE
  8
STANDARD
 62
     7
  5
EB
 66
     1
 10
0.0
 20
0.0
 30
0.0
  0
VERTEX
  8
STANDARD
 62
     7
  5
EC
 10
-16.0
 20
21.2
 30
0.0
  0
VERTEX
  8
STANDARD
 62
     7
  5
ED
 10
-16.08
 20
21.21778
 30
0.0
  0
VERTEX
  8
STANDARD
 62
     7
  5
EE
 10
-16.08
 20
21.18222
 30
0.0
  0
VERTEX
  8
STANDARD
 62
     7
  5
EF
 10
-16.0
 20
21.2
 30
0.0
  0
SEQEND
  8
0
  5
F0
  0
TEXT
  8
STANDARD
 62
     7
  5
F1
 10
-20.9375
 20
19.225
 30
0.0
 40
0.1
  1
cubic
  7
STYLE1
 72
     1
 11
-20.8
 21
19.275
 31
0.0
 73
     2
  0
TEXT
  8
STANDARD
 62
     7
  5
F2
 10
-21.13
 20
19.075
 30
0.0
 40
0.1
  1
interpolator
  7
STYLE1
 72
     1
 11
-20.8
 21
19.125
 31
0.0
 73
     2
  0
TEXT
  8
STANDARD
 62
     7
  5
F3
 10
-21.0475
 20
20.7
 30
0.0
 40
0.1
  1
free mode
  7
STYLE1
 72
     1
 11
-20.8
 21
20.75
 31
0.0
 73
     2
  0
TEXT
  8
STANDARD
 62
     7
  5
F4
 10
-21.075
 20
20.55
 30
0.0
 40
0.1
  1
trajectory
  7
STYLE1
 72
     1
 11
-20.8
 21
20.6
 31
0.0
 73
     2
  0
TEXT
  8
STANDARD
 62
     7
  5
F5
 10
-20.9925
 20
20.4
 30
0.0
 40
0.1
  1
planner
  7
STYLE1
 72
     1
 11
-20.8
 21
20.45
 31
0.0
 73
     2
  0
TEXT
  8
STANDARD
 62
     7
  5
F6
 10
-17.575
 20
20.7
 30
0.0
 40
0.1
  1
backlash &
  7
STYLE1
 72
     1
 11
-17.3
 21
20.75
 31
0.0
 73
     2
  0
TEXT
  8
STANDARD
 62
     7
  5
F7
 10
-17.6025
 20
20.55
 30
0.0
 40
0.1
  1
screw error
  7
STYLE1
 72
     1
 11
-17.3
 21
20.6
 31
0.0
 73
     2
  0
TEXT
  8
STANDARD
 62
     7
  5
F8
 10
-17.41
 20
20.4
 30
0.0
 40
0.1
  1
comp
  7
STYLE1
 72
     1
 11
-17.3
 21
20.45
 31
0.0
 73
     2
  0
POLYLINE
  8
STANDARD
 62
     7
  5
F9
 66
     1
 10
0.0
 20
0.0
 30
0.0
  0
VERTEX
  8
STANDARD
 62
     7
  5
FA
 10
-16.5
 20
21.0
 30
0.0
  0
VERTEX
  8
STANDARD
 62
     7
  5
FB
 10
-16.5
 20
20.6
 30
0.0
  0
VERTEX
  8
STANDARD
 62
     7
  5
FC
 10
-16.8
 20
20.6
 30
0.0
  0
SEQEND
  8
0
  5
FD
  0
POLYLINE
  8
STANDARD
 62
     7
  5
FE
 66
     1
 10
0.0
 20
0.0
 30
0.0
  0
VERTEX
  8
STANDARD
 62
     7
  5
FF
 10
-16.5
 20
21.0
 30
0.0
  0
VERTEX
  8
STANDARD
 62
     7
  5
100
 10
-16.51778
 20
20.92
 30
0.0
  0
VERTEX
  8
STANDARD
 62
     7
  5
101
 10
-16.48222
 20
20.92
 30
0.0
  0
VERTEX
  8
STANDARD
 62
     7
  5
102
 10
-16.5
 20
21.0
 30
0.0
  0
SEQEND
  8
0
  5
103
  0
POLYLINE
  8
STANDARD
 62
     7
  5
104
 66
     1
 10
0.0
 20
0.0
 30
0.0
  0
VERTEX
  8
STANDARD
 62
     7
  5
105
 10
-17.8
 20
20.7
 30
0.0
  0
VERTEX
  8
STANDARD
 62
     7
  5
106
 10
-19.0
 20
20.7
 30
0.0
  0
VERTEX
  8
STANDARD
 62
     7
  5
107
 10
-19.0
 20
20.1
 30
0.0
  0
SEQEND
  8
0
  5
108
  0
POLYLINE
  8
STANDARD
 62
     7
  5
109
 66
     1
 10
0.0
 20
0.0
 30
0.0
  0
VERTEX
  8
STANDARD
 62
     7
  5
10A
 10
-17.8
 20
20.7
 30
0.0
  0
VERTEX
  8
STANDARD
 62
     7
  5
10B
 10
-17.88
 20
20.71778
 30
0.0
  0
VERTEX
  8
STANDARD
 62
     7
  5
10C
 10
-17.88
 20
20.68222
 30
0.0
  0
VERTEX
  8
STANDARD
 62
     7
  5
10D
 10
-17.8
 20
20.7
 30
0.0
  0
SEQEND
  8
0
  5
10E
  0
POLYLINE
  8
STANDARD
 62
     7
  5
10F
 66
     1
 10
0.0
 20
0.0
 30
0.0
  0
VERTEX
  8
STANDARD
 62
     7
  5
110
 10
-19.0
 20
20.1
 30
0.0
  0
VERTEX
  8
STANDARD
 62
     7
  5
111
 10
-19.0
 20
19.9
 30
0.0
  0
SEQEND
  8
0
  5
112
  0
POLYLINE
  8
STANDARD
 62
     7
  5
113
 66
     1
 10
0.0
 20
0.0
 30
0.0
  0
VERTEX
  8
STANDARD
 62
     7
  5
114
 10
-19.0
 20
19.7
 30
0.0
  0
VERTEX
  8
STANDARD
 62
     7
  5
115
 10
-19.0
 20
19.2
 30
0.0
  0
SEQEND
  8
0
  5
116
  0
POLYLINE
  8
STANDARD
 62
     7
  5
117
 66
     1
 10
0.0
 20
0.0
 30
0.0
  0
VERTEX
  8
STANDARD
 62
     7
  5
118
 10
-16.2
 20
19.2
 30
0.0
  0
VERTEX
  8
STANDARD
 62
     7
  5
119
 10
-19.0
 20
19.2
 30
0.0
  0
SEQEND
  8
0
  5
11A
  0
POLYLINE
  8
STANDARD
 62
     7
  5
11B
 66
     1
 10
0.0
 20
0.0
 30
0.0
  0
VERTEX
  8
STANDARD
 62
     7
  5
11C
 10
-16.2
 20
19.2
 30
0.0
  0
VERTEX
  8
STANDARD
 62
     7
  5
11D
 10
-16.28
 20
19.21778
 30
0.0
  0
VERTEX
  8
STANDARD
 62
     7
  5
11E
 10
-16.28
 20
19.18222
 30
0.0
  0
VERTEX
  8
STANDARD
 62
     7
  5
11F
 10
-16.2
 20
19.2
 30
0.0
  0
SEQEND
  8
0
  5
120
  0
POLYLINE
  8
STANDARD
 62
     7
  5
121
 66
     1
 10
0.0
 20
0.0
 30
0.0
  0
VERTEX
  8
STANDARD
 62
     7
  5
122
 10
-22.8
 20
19.5
 30
0.0
  0
VERTEX
  8
STANDARD
 62
     7
  5
123
 10
-23.0
 20
19.5
 30
0.0
  0
SEQEND
  8
0
  5
124
  0
POLYLINE
  8
STANDARD
 62
     7
  5
125
 66
     1
 10
0.0
 20
0.0
 30
0.0
  0
VERTEX
  8
STANDARD
 62
     7
  5
126
 10
-22.8
 20
19.5
 30
0.0
  0
VERTEX
  8
STANDARD
 62
     7
  5
127
 10
-22.88
 20
19.51778
 30
0.0
  0
VERTEX
  8
STANDARD
 62
     7
  5
128
 10
-22.88
 20
19.48222
 30
0.0
  0
VERTEX
  8
STANDARD
 62
     7
  5
129
 10
-22.8
 20
19.5
 30
0.0
  0
SEQEND
  8
0
  5
12A
  0
POLYLINE
  8
STANDARD
 62
     7
  5
12B
 66
     1
 10
0.0
 20
0.0
 30
0.0
  0
VERTEX
  8
STANDARD
 62
     7
  5
12C
 10
-17.9
 20
19.5
 30
0.0
  0
VERTEX
  8
STANDARD
 62
     7
  5
12D
 10
-18.1
 20
19.5
 30
0.0
  0
SEQEND
  8
0
  5
12E
  0
POLYLINE
  8
STANDARD
 62
     7
  5
12F
 66
     1
 10
0.0
 20
0.0
 30
0.0
  0
VERTEX
  8
STANDARD
 62
     7
  5
130
 10
-17.9
 20
19.5
 30
0.0
  0
VERTEX
  8
STANDARD
 62
     7
  5
131
 10
-17.98
 20
19.51778
 30
0.0
  0
VERTEX
  8
STANDARD
 62
     7
  5
132
 10
-17.98
 20
19.48222
 30
0.0
  0
VERTEX
  8
STANDARD
 62
     7
  5
133
 10
-17.9
 20
19.5
 30
0.0
  0
SEQEND
  8
0
  5
134
  0
POLYLINE
  8
STANDARD
 62
     7
  5
135
 66
     1
 10
0.0
 20
0.0
 30
0.0
  0
VERTEX
  8
STANDARD
 62
     7
  5
136
 10
-16.5
 20
21.4
 30
0.0
  0
VERTEX
  8
STANDARD
 62
     7
  5
137
 10
-16.5
 20
21.8
 30
0.0
  0
VERTEX
  8
STANDARD
 62
     7
  5
138
 10
-16.7
 20
21.8
 30
0.0
  0
SEQEND
  8
0
  5
139
  0
POLYLINE
  8
STANDARD
 62
     7
  5
13A
 66
     1
 10
0.0
 20
0.0
 30
0.0
  0
VERTEX
  8
STANDARD
 62
     7
  5
13B
 10
-16.5
 20
21.4
 30
0.0
  0
VERTEX
  8
STANDARD
 62
     7
  5
13C
 10
-16.48222
 20
21.48
 30
0.0
  0
VERTEX
  8
STANDARD
 62
     7
  5
13D
 10
-16.51778
 20
21.48
 30
0.0
  0
VERTEX
  8
STANDARD
 62
     7
  5
13E
 10
-16.5
 20
21.4
 30
0.0
  0
SEQEND
  8
0
  5
13F
  0
TEXT
  8
STANDARD
 62
     7
  5
140
 10
-19.7475
 20
20.25
 30
0.0
 40
0.1
  1
free mode
  7
STYLE1
 72
     1
 11
-19.5
 21
20.3
 31
0.0
 73
     2
  0
TEXT
  8
STANDARD
 62
     7
  5
141
 10
-19.72
 20
19.425
 30
0.0
 40
0.1
  1
teleop &
  7
STYLE1
 72
     1
 11
-19.5
 21
19.475
 31
0.0
 73
     2
  0
TEXT
  8
STANDARD
 62
     7
  5
142
 10
-19.775
 20
19.275
 30
0.0
 40
0.1
  1
coord mode
  7
STYLE1
 72
     1
 11
-19.5
 21
19.325
 31
0.0
 73
     2
  0
LINE
  8
PARAMS
 62
     7
  5
143
 10
-17.9
 20
19.8
 30
0.0
 11
-17.9
 21
20.0
 31
0.0
  0
LINE
  8
PARAMS
 62
     7
  5
144
 10
-17.9
 20
20.0
 30
0.0
 11
-16.7
 21
20.0
 31
0.0
  0
LINE
  8
PARAMS
 62
     7
  5
145
 10
-16.7
 20
20.0
 30
0.0
 11
-16.7
 21
19.8
 31
0.0
  0
LINE
  8
PARAMS
 62
     7
  5
146
 10
-16.7
 20
19.8
 30
0.0
 11
-17.9
 21
19.8
 31
0.0
  0
LINE
  8
PARAMS
 62
     7
  5
147
 10
-22.8
 20
22.6
 30
0.0
 11
-22.8
 21
22.8
 31
0.0
  0
LINE
  8
PARAMS
 62
     7
  5
148
 10
-22.8
 20
22.8
 30
0.0
 11
-21.6
 21
22.8
 31
0.0
  0
LINE
  8
PARAMS
 62
     7
  5
149
 10
-21.6
 20
22.8
 30
0.0
 11
-21.6
 21
22.6
 31
0.0
  0
LINE
  8
PARAMS
 62
     7
  5
14A
 10
-21.6
 20
22.6
 30
0.0
 11
-22.8
 21
22.6
 31
0.0
  0
LINE
  8
PARAMS
 62
     7
  5
14B
 10
-22.8
 20
19.4
 30
0.0
 11
-22.8
 21
19.6
 31
0.0
  0
LINE
  8
PARAMS
 62
     7
  5
14C
 10
-22.8
 20
19.6
 30
0.0
 11
-21.6
 21
19.6
 31
0.0
  0
LINE
  8
PARAMS
 62
     7
  5
14D
 10
-21.6
 20
19.6
 30
0.0
 11
-21.6
 21
19.4
 31
0.0
  0
LINE
  8
PARAMS
 62
     7
  5
14E
 10
-21.6
 20
19.4
 30
0.0
 11
-22.8
 21
19.4
 31
0.0
  0
LINE
  8
PARAMS
 62
     7
  5
14F
 10
-17.9
 20
19.4
 30
0.0
 11
-17.9
 21
19.6
 31
0.0
  0
LINE
  8
PARAMS
 62
     7
  5
150
 10
-17.9
 20
19.6
 30
0.0
 11
-16.7
 21
19.6
 31
0.0
  0
LINE
  8
PARAMS
 62
     7
  5
151
 10
-16.7
 20
19.6
 30
0.0
 11
-16.7
 21
19.4
 31
0.0
  0
LINE
  8
PARAMS
 62
     7
  5
152
 10
-16.7
 20
19.4
 30
0.0
 11
-17.9
 21
19.4
 31
0.0
  0
LINE
  8
PARAMS
 62
     7
  5
153
 10
-22.8
 20
20.7
 30
0.0
 11
-22.8
 21
20.9
 31
0.0
  0
LINE
  8
PARAMS
 62
     7
  5
154
 10
-22.8
 20
20.9
 30
0.0
 11
-21.6
 21
20.9
 31
0.0
  0
LINE
  8
PARAMS
 62
     7
  5
155
 10
-21.6
 20
20.9
 30
0.0
 11
-21.6
 21
20.7
 31
0.0
  0
LINE
  8
PARAMS
 62
     7
  5
156
 10
-21.6
 20
20.7
 30
0.0
 11
-22.8
 21
20.7
 31
0.0
  0
LINE
  8
PARAMS
 62
     7
  5
157
 10
-22.8
 20
20.3
 30
0.0
 11
-22.8
 21
20.5
 31
0.0
  0
LINE
  8
PARAMS
 62
     7
  5
158
 10
-22.8
 20
20.5
 30
0.0
 11
-21.6
 21
20.5
 31
0.0
  0
LINE
  8
PARAMS
 62
     7
  5
159
 10
-21.6
 20
20.5
 30
0.0
 11
-21.6
 21
20.3
 31
0.0
  0
LINE
  8
PARAMS
 62
     7
  5
15A
 10
-21.6
 20
20.3
 30
0.0
 11
-22.8
 21
20.3
 31
0.0
  0
LINE
  8
PARAMS
 62
     7
  5
15B
 10
-17.9
 20
21.7
 30
0.0
 11
-17.9
 21
21.9
 31
0.0
  0
LINE
  8
PARAMS
 62
     7
  5
15C
 10
-17.9
 20
21.9
 30
0.0
 11
-16.7
 21
21.9
 31
0.0
  0
LINE
  8
PARAMS
 62
     7
  5
15D
 10
-16.7
 20
21.9
 30
0.0
 11
-16.7
 21
21.7
 31
0.0
  0
LINE
  8
PARAMS
 62
     7
  5
15E
 10
-16.7
 20
21.7
 30
0.0
 11
-17.9
 21
21.7
 31
0.0
  0
LINE
  8
STANDARD
 62
     7
  5
15F
 10
-20.0
 20
19.2
 30
0.0
 11
-20.0
 21
19.7
 31
0.0
  0
LINE
  8
STANDARD
 62
     7
  5
160
 10
-20.0
 20
20.1
 30
0.0
 11
-20.0
 21
20.6
 31
0.0
  0
LINE
  8
STANDARD
 62
     7
  5
161
 10
-20.0
 20
19.2
 30
0.0
 11
-20.3
 21
19.2
 31
0.0
  0
LINE
  8
STANDARD
 62
     7
  5
162
 10
-20.0
 20
20.6
 30
0.0
 11
-20.3
 21
20.6
 31
0.0
  0
LINE
  8
STANDARD
 62
     7
  5
163
 10
-21.3
 20
20.8
 30
0.0
 11
-21.6
 21
20.8
 31
0.0
  0
POLYLINE
  8
STANDARD
 62
     7
  5
164
 66
     1
 10
0.0
 20
0.0
 30
0.0
  0
VERTEX
  8
STANDARD
 62
     7
  5
165
 10
-21.3
 20
20.8
 30
0.0
  0
VERTEX
  8
STANDARD
 62
     7
  5
166
 10
-21.38
 20
20.81778
 30
0.0
  0
VERTEX
  8
STANDARD
 62
     7
  5
167
 10
-21.38
 20
20.78222
 30
0.0
  0
VERTEX
  8
STANDARD
 62
     7
  5
168
 10
-21.3
 20
20.8
 30
0.0
  0
SEQEND
  8
0
  5
169
  0
LINE
  8
STANDARD
 62
     7
  5
16A
 10
-21.3
 20
20.4
 30
0.0
 11
-21.6
 21
20.4
 31
0.0
  0
POLYLINE
  8
STANDARD
 62
     7
  5
16B
 66
     1
 10
0.0
 20
0.0
 30
0.0
  0
VERTEX
  8
STANDARD
 62
     7
  5
16C
 10
-21.3
 20
20.4
 30
0.0
  0
VERTEX
  8
STANDARD
 62
     7
  5
16D
 10
-21.38
 20
20.41778
 30
0.0
  0
VERTEX
  8
STANDARD
 62
     7
  5
16E
 10
-21.38
 20
20.38222
 30
0.0
  0
VERTEX
  8
STANDARD
 62
     7
  5
16F
 10
-21.3
 20
20.4
 30
0.0
  0
SEQEND
  8
0
  5
170
  0
POLYLINE
  8
STANDARD
 62
     7
  5
171
 66
     1
 10
0.0
 20
0.0
 30
0.0
 70
     1
  0
VERTEX
  8
STANDARD
 62
     7
  5
172
 10
-18.7
 20
19.7
 30
0.0
  0
VERTEX
  8
STANDARD
 62
     7
  5
173
 10
-18.7
 20
20.1
 30
0.0
  0
VERTEX
  8
STANDARD
 62
     7
  5
174
 10
-18.3
 20
20.1
 30
0.0
  0
VERTEX
  8
STANDARD
 62
     7
  5
175
 10
-18.3
 20
19.7
 30
0.0
  0
VERTEX
  8
STANDARD
 62
     7
  5
176
 10
-18.7
 20
19.7
 30
0.0
  0
SEQEND
  8
0
  5
177
  0
POLYLINE
  8
STANDARD
 62
     7
  5
178
 66
     1
 10
0.0
 20
0.0
 30
0.0
  0
VERTEX
  8
STANDARD
 62
     7
  5
179
 10
-17.8
 20
20.5
 30
0.0
  0
VERTEX
  8
STANDARD
 62
     7
  5
17A
 10
-18.1
 20
20.5
 30
0.0
  0
VERTEX
  8
STANDARD
 62
     7
  5
17B
 10
-18.1
 20
19.9
 30
0.0
  0
SEQEND
  8
0
  5
17C
  0
POLYLINE
  8
STANDARD
 62
     7
  5
17D
 66
     1
 10
0.0
 20
0.0
 30
0.0
  0
VERTEX
  8
STANDARD
 62
     7
  5
17E
 10
-17.8
 20
20.5
 30
0.0
  0
VERTEX
  8
STANDARD
 62
     7
  5
17F
 10
-17.88
 20
20.51778
 30
0.0
  0
VERTEX
  8
STANDARD
 62
     7
  5
180
 10
-17.88
 20
20.48222
 30
0.0
  0
VERTEX
  8
STANDARD
 62
     7
  5
181
 10
-17.8
 20
20.5
 30
0.0
  0
SEQEND
  8
0
  5
182
  0
POLYLINE
  8
STANDARD
 62
     7
  5
183
 66
     1
 10
0.0
 20
0.0
 30
0.0
  0
VERTEX
  8
STANDARD
 62
     7
  5
184
 10
-17.9
 20
19.9
 30
0.0
  0
VERTEX
  8
STANDARD
 62
     7
  5
185
 10
-18.1
 20
19.9
 30
0.0
  0
SEQEND
  8
0
  5
186
  0
POLYLINE
  8
STANDARD
 62
     7
  5
187
 66
     1
 10
0.0
 20
0.0
 30
0.0
  0
VERTEX
  8
STANDARD
 62
     7
  5
188
 10
-17.9
 20
19.9
 30
0.0
  0
VERTEX
  8
STANDARD
 62
     7
  5
189
 10
-17.98
 20
19.91778
 30
0.0
  0
VERTEX
  8
STANDARD
 62
     7
  5
18A
 10
-17.98
 20
19.88222
 30
0.0
  0
VERTEX
  8
STANDARD
 62
     7
  5
18B
 10
-17.9
 20
19.9
 30
0.0
  0
SEQEND
  8
0
  5
18C
  0
LINE
  8
STANDARD
 62
     7
  5
18D
 10
-18.1
 20
19.9
 30
0.0
 11
-18.3
 21
19.9
 31
0.0
  0
POLYLINE
  8
STANDARD
 62
     7
  5
18E
 66
     1
 10
0.0
 20
0.0
 30
0.0
  0
VERTEX
  8
STANDARD
 62
     7
  5
18F
 10
-18.1
 20
19.9
 30
0.0
  0
VERTEX
  8
STANDARD
 62
     7
  5
190
 10
-18.18
 20
19.91778
 30
0.0
  0
VERTEX
  8
STANDARD
 62
     7
  5
191
 10
-18.18
 20
19.88222
 30
0.0
  0
VERTEX
  8
STANDARD
 62
     7
  5
192
 10
-18.1
 20
19.9
 30
0.0
  0
SEQEND
  8
0
  5
193
  0
LINE
  8
STANDARD
 62
     7
  5
194
 10
-18.7
 20
19.9
 30
0.0
 11
-19.0
 21
19.9
 31
0.0
  0
POLYLINE
  8
STANDARD
 62
     7
  5
195
 66
     1
 10
0.0
 20
0.0
 30
0.0
  0
VERTEX
  8
STANDARD
 62
     7
  5
196
 10
-18.7
 20
19.9
 30
0.0
  0
VERTEX
  8
STANDARD
 62
     7
  5
197
 10
-18.78
 20
19.91778
 30
0.0
  0
VERTEX
  8
STANDARD
 62
     7
  5
198
 10
-18.78
 20
19.88222
 30
0.0
  0
VERTEX
  8
STANDARD
 62
     7
  5
199
 10
-18.7
 20
19.9
 30
0.0
  0
SEQEND
  8
0
  5
19A
  0
POLYLINE
  8
STANDARD
 62
     7
  5
19B
 66
     1
 10
0.0
 20
0.0
 30
0.0
  0
VERTEX
  8
STANDARD
 62
     7
  5
19C
 10
-19.0
 20
19.9
 30
0.0
  0
VERTEX
  8
STANDARD
 62
     7
  5
19D
 10
-19.0
 20
19.7
 30
0.0
  0
SEQEND
  8
0
  5
19E
  0
POLYLINE
  8
STANDARD
 62
     7
  5
19F
 66
     1
 10
0.0
 20
0.0
 30
0.0
  0
VERTEX
  8
STANDARD
 62
     7
  5
1A0
 10
-21.6
 20
22.7
 30
0.0
  0
VERTEX
  8
STANDARD
 62
     7
  5
1A1
 10
-21.4
 20
22.7
 30
0.0
  0
VERTEX
  8
STANDARD
 62
     7
  5
1A2
 10
-21.4
 20
22.4
 30
0.0
  0
SEQEND
  8
0
  5
1A3
  0
POLYLINE
  8
STANDARD
 62
     7
  5
1A4
 66
     1
 10
0.0
 20
0.0
 30
0.0
  0
VERTEX
  8
STANDARD
 62
     7
  5
1A5
 10
-21.6
 20
22.7
 30
0.0
  0
VERTEX
  8
STANDARD
 62
     7
  5
1A6
 10
-21.52
 20
22.68222
 30
0.0
  0
VERTEX
  8
STANDARD
 62
     7
  5
1A7
 10
-21.52
 20
22.71778
 30
0.0
  0
VERTEX
  8
STANDARD
 62
     7
  5
1A8
 10
-21.6
 20
22.7
 30
0.0
  0
SEQEND
  8
0
  5
1A9
  0
POLYLINE
  8
STANDARD
 62
     7
  5
1AA
 66
     1
 10
0.0
 20
0.0
 30
0.0
  0
VERTEX
  8
STANDARD
 62
     7
  5
1AB
 10
-21.4
 20
22.4
 30
0.0
  0
VERTEX
  8
STANDARD
 62
     7
  5
1AC
 10
-16.2
 20
22.4
 30
0.0
  0
SEQEND
  8
0
  5
1AD
  0
POLYLINE
  8
STANDARD
 62
     7
  5
1AE
 66
     1
 10
0.0
 20
0.0
 30
0.0
  0
VERTEX
  8
STANDARD
 62
     7
  5
1AF
 10
-21.4
 20
22.4
 30
0.0
  0
VERTEX
  8
STANDARD
 62
     7
  5
1B0
 10
-21.32
 20
22.38222
 30
0.0
  0
VERTEX
  8
STANDARD
 62
     7
  5
1B1
 10
-21.32
 20
22.41778
 30
0.0
  0
VERTEX
  8
STANDARD
 62
     7
  5
1B2
 10
-21.4
 20
22.4
 30
0.0
  0
SEQEND
  8
0
  5
1B3
  0
LINE
  8
STANDARD
 62
     7
  5
1B4
 10
-23.0
 20
19.5
 30
0.0
 11
-23.0
 21
19.2
 31
0.0
  0
LINE
  8
STANDARD
 62
     7
  5
1B5
 10
-18.1
 20
19.5
 30
0.0
 11
-18.1
 21
19.2
 31
0.0
  0
LINE
  8
STANDARD
 62
     7
  5
1B6
 10
-23.4
 20
23.2
 30
0.0
 11
-23.4
 21
18.4
 31
0.0
  0
LINE
  8
STANDARD
 62
     7
  5
1B7
 10
-21.4
 20
22.4
 30
0.0
 11
-23.6
 21
22.4
 31
0.0
  0
POLYLINE
  8
STANDARD
 62
     7
  5
1B8
 66
     1
 10
0.0
 20
0.0
 30
0.0
  0
VERTEX
  8
STANDARD
 62
     7
  5
1B9
 10
-23.6
 20
22.4
 30
0.0
  0
VERTEX
  8
STANDARD
 62
     7
  5
1BA
 10
-23.52
 20
22.38222
 30
0.0
  0
VERTEX
  8
STANDARD
 62
     7
  5
1BB
 10
-23.52
 20
22.41778
 30
0.0
  0
VERTEX
  8
STANDARD
 62
     7
  5
1BC
 10
-23.6
 20
22.4
 30
0.0
  0
SEQEND
  8
0
  5
1BD
  0
LINE
  8
STANDARD
 62
     7
  5
1BE
 10
-14.1
 20
22.3
 30
0.0
 11
-14.1
 21
19.3
 31
0.0
  0
LINE
  8
STANDARD
 62
     7
  5
1BF
 10
-14.1
 20
22.5
 30
0.0
 11
-14.1
 21
23.2
 31
0.0
  0
LINE
  8
STANDARD
 62
     7
  5
1C0
 10
-14.1
 20
23.2
 30
0.0
 11
-23.4
 21
23.2
 31
0.0
  0
LINE
  8
STANDARD
 62
     7
  5
1C1
 10
-14.1
 20
19.1
 30
0.0
 11
-14.1
 21
18.4
 31
0.0
  0
LINE
  8
STANDARD
 62
     7
  5
1C2
 10
-14.1
 20
18.4
 30
0.0
 11
-23.4
 21
18.4
 31
0.0
  0
LINE
  8
STANDARD
 62
     7
  5
1C3
 10
-21.3
 20
19.2
 30
0.0
 11
-23.0
 21
19.2
 31
0.0
  0
POLYLINE
  8
STANDARD
 62
     7
  5
1C4
 66
     1
 10
0.0
 20
0.0
 30
0.0
  0
VERTEX
  8
STANDARD
 62
     7
  5
1C5
 10
-21.3
 20
19.2
 30
0.0
  0
VERTEX
  8
STANDARD
 62
     7
  5
1C6
 10
-21.38
 20
19.21778
 30
0.0
  0
VERTEX
  8
STANDARD
 62
     7
  5
1C7
 10
-21.38
 20
19.18222
 30
0.0
  0
VERTEX
  8
STANDARD
 62
     7
  5
1C8
 10
-21.3
 20
19.2
 30
0.0
  0
SEQEND
  8
0
  5
1C9
  0
LINE
  8
STANDARD
 62
     7
  5
1CA
 10
-23.0
 20
19.2
 30
0.0
 11
-23.6
 21
19.2
 31
0.0
  0
POLYLINE
  8
STANDARD
 62
     7
  5
1CB
 66
     1
 10
0.0
 20
0.0
 30
0.0
  0
VERTEX
  8
STANDARD
 62
     7
  5
1CC
 10
-23.0
 20
19.2
 30
0.0
  0
VERTEX
  8
STANDARD
 62
     7
  5
1CD
 10
-23.08
 20
19.21778
 30
0.0
  0
VERTEX
  8
STANDARD
 62
     7
  5
1CE
 10
-23.08
 20
19.18222
 30
0.0
  0
VERTEX
  8
STANDARD
 62
     7
  5
1CF
 10
-23.0
 20
19.2
 30
0.0
  0
SEQEND
  8
0
  5
1D0
  0
TEXT
  8
STANDARD
 62
     7
  5
1D1
 10
-13.665
 20
19.225
 30
0.0
 40
0.1
  1
Output
  7
STYLE1
 72
     1
 11
-13.5
 21
19.275
 31
0.0
 73
     2
  0
TEXT
  8
STANDARD
 62
     7
  5
1D2
 10
-13.665
 20
19.075
 30
0.0
 40
0.1
  1
to HAL
  7
STYLE1
 72
     1
 11
-13.5
 21
19.125
 31
0.0
 73
     2
  0
TEXT
  8
STANDARD
 62
     7
  5
1D3
 10
-13.72
 20
22.425
 30
0.0
 40
0.1
  1
Feedback
  7
STYLE1
 72
     1
 11
-13.5
 21
22.475
 31
0.0
 73
     2
  0
TEXT
  8
STANDARD
 62
     7
  5
1D4
 10
-13.72
 20
22.275
 30
0.0
 40
0.1
  1
from HAL
  7
STYLE1
 72
     1
 11
-13.5
 21
22.325
 31
0.0
 73
     2
  0
TEXT
  8
STANDARD
 62
     7
  5
1D5
 10
-24.4025
 20
22.425
 30
0.0
 40
0.1
  1
Feedback to
  7
STYLE1
 72
     1
 11
-24.1
 21
22.475
 31
0.0
 73
     2
  0
TEXT
  8
STANDARD
 62
     7
  5
1D6
 10
-24.375
 20
22.275
 30
0.0
 40
0.1
  1
Kinematics
  7
STYLE1
 72
     1
 11
-24.1
 21
22.325
 31
0.0
 73
     2
  0
TEXT
  8
STANDARD
 62
     7
  5
1D7
 10
-24.32
 20
19.3
 30
0.0
 40
0.1
  1
Commands
  7
STYLE1
 72
     1
 11
-24.1
 21
19.35
 31
0.0
 73
     2
  0
TEXT
  8
STANDARD
 62
     7
  5
1D8
 10
-24.21
 20
19.15
 30
0.0
 40
0.1
  1
from
  7
STYLE1
 72
     1
 11
-24.1
 21
19.2
 31
0.0
 73
     2
  0
TEXT
  8
STANDARD
 62
     7
  5
1D9
 10
-24.375
 20
19.0
 30
0.0
 40
0.1
  1
Kinematics
  7
STYLE1
 72
     1
 11
-24.1
 21
19.05
 31
0.0
 73
     2
  0
TEXT
  8
STANDARD
 62
     7
  5
1DA
 10
-19.14
 20
22.95
 30
0.0
 40
0.1
  1
JOINT CONTROLLER
  7
STYLE1
 72
     1
 11
-18.7
 21
23.0
 31
0.0
 73
     2
  0
ENDSEC
  0
EOF
